  0
SECTION
  2
HEADER
  9
$ACADVER
  1
AC1009
  9
$INSBASE
 10
0.0
 20
0.0
 30
0.0
  9
$EXTMIN
 10
0.0
 20
0.0
 30
0.0
  9
$EXTMAX
 10
4467.166015625
 20
2612.9975585938
 30
0.0
  9
$LIMMIN
 10
0.0
 20
0.0
  9
$LIMMAX
 10
4467.166015625
 20
2612.9975585938
  9
$VIEWCTR
 10
2233.5830078125
 20
1306.4987792969
  9
$TEXTSTYLE
  7
STANDARD
  9
$CLAYER
  8
0
  9
$CELTYPE
  6
BYLAYER
  9
$AUNITS
 70
     0
  9
$AUPREC
 70
     0
  9
$MENU
  1
ACAD
  9
$VIEWDIR
 10
0.0
 20
0.0
 30
1.0
  9
$ANGBASE
 50
0.0
  9
$ANGDIR
 70
     0
  0
ENDSEC
  0
SECTION
  2
TABLES
  0
TABLE
  2
LTYPE
 70
    16
  0
LTYPE
  2
DOGS_LTYPE_1
 70
    64
  3
Dogs line type 1 - Continuous line
 72
    65
 73
     0
 40
0.0
  0
LTYPE
  2
DOGS_LTYPE_2
 70
    64
  3
Dogs line type 2 - Dashed
 72
    65
 73
     2
 40
0.75
 49
0.5
 49
-0.25
  0
LTYPE
  2
DOGS_LTYPE_3
 70
    64
  3
Dogs line type 3 - Dash dot
 72
    65
 73
     4
 40
2.0
 49
1.25
 49
-0.25
 49
0.25
 49
-0.25
  0
LTYPE
  2
DOGS_LTYPE_4
 70
    64
  3
Dogs line type 4 - Long dashes
 72
    65
 73
     4
 40
2.0
 49
1.0
 49
-0.25
 49
1.0
 49
-0.25
  0
LTYPE
  2
DOGS_LTYPE_5
 70
    64
  3
Dogs line type 5 - Converted to dash dot
 72
    65
 73
     4
 40
2.0
 49
2.25
 49
-0.25
 49
0.25
 49
-0.25
  0
LTYPE
  2
DOGS_LTYPE_6
 70
    64
  3
Dogs line type 6 - Converted to dash dot
 72
    65
 73
     4
 40
2.0
 49
1.0
 49
-1.0
 49
1.0
 49
-0.25
  0
LTYPE
  2
DOGS_LTYPE_7
 70
    64
  3
Dogs line type 7 - Converted to dash dot
 72
    65
 73
     4
 40
2.0
 49
1.25
 49
-1.25
 49
0.25
 49
-1.25
  0
LTYPE
  2
DOGS_LTYPE_8
 70
    64
  3
Dogs line type 8 - Converted to dash dot
 72
    65
 73
     4
 40
2.0
 49
1.25
 49
-1.25
 49
2.25
 49
-0.05
  0
LTYPE
  2
DOGSL_1
 70
    64
  3
Dogs line type 1 - Continuous line
 72
    65
 73
     0
 40
0.0
  0
LTYPE
  2
DOGSL_2
 70
    64
  3
Dogs line type 2 - Dashed
 72
    65
 73
     2
 40
0.75
 49
0.5
 49
-0.25
  0
LTYPE
  2
DOGSL_3
 70
    64
  3
Dogs line type 3 - Dash dot
 72
    65
 73
     4
 40
2.0
 49
1.25
 49
-0.25
 49
0.25
 49
-0.25
  0
LTYPE
  2
DOGSL_4
 70
    64
  3
Dogs line type 4 - Long dashes
 72
    65
 73
     4
 40
2.0
 49
1.0
 49
-0.25
 49
1.0
 49
-0.25
  0
LTYPE
  2
DOGSL_5
 70
    64
  3
Dogs line type 5 - Converted to dash dot
 72
    65
 73
     4
 40
2.0
 49
2.25
 49
-0.25
 49
0.25
 49
-0.25
  0
LTYPE
  2
DOGSL_6
 70
    64
  3
Dogs line type 6 - Converted to dash dot
 72
    65
 73
     4
 40
2.0
 49
1.0
 49
-1.0
 49
1.0
 49
-0.25
  0
LTYPE
  2
DOGSL_7
 70
    64
  3
Dogs line type 7 - Converted to dash dot
 72
    65
 73
     4
 40
2.0
 49
1.25
 49
-1.25
 49
0.25
 49
-1.25
  0
LTYPE
  2
DOGSL_8
 70
    64
  3
Dogs line type 8 - Converted to dash dot
 72
    65
 73
     4
 40
2.0
 49
1.25
 49
-1.25
 49
2.25
 49
-0.05
  0
ENDTAB
  0
TABLE
  2
LAYER
 70
     4
  0
LAYER
  2
DOGSV_5
 70
     0
 62
     7
  6
DOGSL_1
  0
LAYER
  2
DOGSV_6
 70
     0
 62
     7
  6
DOGSL_1
  0
LAYER
  2
DOGSV_8
 70
     0
 62
     7
  6
DOGSL_1
  0
LAYER
  2
DOGSV_10
 70
     0
 62
     7
  6
DOGSL_1
  0
ENDTAB
  0
TABLE
  2
STYLE
 70
     1
  0
STYLE
  2
STANDARD
 70
     0
 40
0.0
 41
1.0
 50
0.0
 71
     0
 42
0.200000003
  3
txt
  4

  0
ENDTAB
  0
TABLE
  2
VIEW
 70
     0
  0
ENDTAB
  0
TABLE
  2
VPORT
 70
     0
  0
ENDTAB
  0
TABLE
  2
APPID
 70
     1
  0
APPID
  2
ACAD
 70
    64
  0
ENDTAB
  0
TABLE
  2
UCS
 70
     0
  0
ENDTAB
  0
TABLE
  2
DIMSTYLE
 70
     0
  0
ENDTAB
  0
ENDSEC
  0
SECTION
  2
BLOCKS
  0
ENDSEC
  0
SECTION
  2
ENTITIES
  0
TEXT
  8
DOGSV_5
 62
     3
 10
3652.6240234375
 20
698.2334594727
 40
40.0
 50
0.0
  1
VIEW 5 (BOX)
  0
LINE
  8
DOGSV_5
  6
DOGSL_1
 62
     7
 10
507.3713684082
 20
1184.7631835938
 11
507.3713684082
 21
934.7631835938
  0
LINE
  8
DOGSV_5
  6
DOGSL_1
 62
     7
 10
513.3713378906
 20
1184.7631835938
 11
513.3713378906
 21
1175.7631835938
  0
ARC
  8
DOGSV_5
  6
DOGSL_1
 62
     7
 10
514.3713378906
 20
1175.7631835938
 40
1.0
 50
180.0
 51
270.0
  0
LINE
  8
DOGSV_5
  6
DOGSL_1
 62
     7
 10
513.3713378906
 20
1174.7631835938
 11
513.3713989258
 21
1174.7631835938
  0
LINE
  8
DOGSV_5
  6
DOGSL_1
 62
     7
 10
513.3713378906
 20
943.7631835938
 11
513.3713378906
 21
934.7631835938
  0
ARC
  8
DOGSV_5
  6
DOGSL_1
 62
     7
 10
514.3713378906
 20
943.7631835938
 40
1.0
 50
90.0
 51
180.0
  0
LINE
  8
DOGSV_5
  6
DOGSL_1
 62
     7
 10
513.3713378906
 20
944.7631835938
 11
513.3713989258
 21
944.7632446289
  0
LINE
  8
DOGSV_5
  6
DOGSL_1
 62
     7
 10
507.3713684082
 20
1184.7631835938
 11
513.3713378906
 21
1184.7631835938
  0
LINE
  8
DOGSV_5
  6
DOGSL_1
 62
     7
 10
507.3713684082
 20
934.7631835938
 11
513.3713378906
 21
934.7631835938
  0
LINE
  8
DOGSV_5
  6
DOGSL_1
 62
     7
 10
507.3713684082
 20
1171.7631835938
 11
2065.3464355469
 21
1171.7631835938
  0
LINE
  8
DOGSV_5
  6
DOGSL_1
 62
     7
 10
507.3713684082
 20
947.7631835938
 11
2065.3464355469
 21
947.7631835938
  0
LINE
  8
DOGSV_5
  6
DOGSL_3
 62
     3
 10
517.2270507812
 20
1179.7628173828
 11
493.9969177246
 21
1179.7628173828
  0
LINE
  8
DOGSV_5
  6
DOGSL_3
 62
     3
 10
517.2270507812
 20
939.7628173828
 11
493.9969177246
 21
939.7628173828
  0
LINE
  8
DOGSV_5
  6
DOGSL_1
 62
     7
 10
514.3713378906
 20
1174.7631835938
 11
1279.3588867188
 21
1174.7631835938
  0
LINE
  8
DOGSV_5
  6
DOGSL_1
 62
     7
 10
514.3713378906
 20
944.7631835938
 11
1279.3588867188
 21
944.7631835938
  0
ARC
  8
DOGSV_5
  6
DOGSL_1
 62
     7
 10
91.1198806763
 20
1183.7631835938
 40
1.0
 50
90.0
 51
180.0
  0
POINT
  8
DOGSV_5
 10
90.1198806763
 20
1184.7631835938
  0
ARC
  8
DOGSV_5
  6
DOGSL_1
 62
     7
 10
101.1198806763
 20
1173.7631835938
 40
1.0
 50
90.0
 51
180.0
  0
POINT
  8
DOGSV_5
 10
100.1198806763
 20
1174.7631835938
  0
LINE
  8
DOGSV_5
  6
DOGSL_1
 62
     7
 10
101.1198806763
 20
1174.7631835938
 11
329.1198730469
 21
1174.7631835938
  0
ARC
  8
DOGSV_5
  6
DOGSL_1
 62
     7
 10
329.1198730469
 20
1173.7631835938
 40
1.0
 50
0.0
 51
90.0
  0
LINE
  8
DOGSV_5
  6
DOGSL_1
 62
     7
 10
330.1198730469
 20
1174.7631835938
 11
330.119934082
 21
1174.7631835938
  0
LINE
  8
DOGSV_5
  6
DOGSL_1
 62
     7
 10
91.1198806763
 20
1184.7631835938
 11
339.1198730469
 21
1184.7631835938
  0
ARC
  8
DOGSV_5
  6
DOGSL_1
 62
     7
 10
339.1198730469
 20
1183.7631835938
 40
1.0
 50
0.0
 51
90.0
  0
LINE
  8
DOGSV_5
  6
DOGSL_1
 62
     7
 10
340.1198730469
 20
1184.7631835938
 11
340.119934082
 21
1184.7631835938
  0
LINE
  8
DOGSV_5
  6
DOGSL_1
 62
     7
 10
340.1198730469
 20
1183.7631835938
 11
340.1198730469
 21
935.7631835938
  0
ARC
  8
DOGSV_5
  6
DOGSL_1
 62
     7
 10
339.1198730469
 20
935.7631835938
 40
1.0
 50
270.0
 51
0.0
  0
LINE
  8
DOGSV_5
  6
DOGSL_1
 62
     7
 10
340.1198730469
 20
934.7631835938
 11
340.119934082
 21
934.7632446289
  0
LINE
  8
DOGSV_5
  6
DOGSL_1
 62
     7
 10
330.1198730469
 20
1173.7631835938
 11
330.1198730469
 21
945.7631835938
  0
ARC
  8
DOGSV_5
  6
DOGSL_1
 62
     7
 10
329.1198730469
 20
945.7631835938
 40
1.0
 50
270.0
 51
360.0
  0
LINE
  8
DOGSV_5
  6
DOGSL_1
 62
     7
 10
330.1198730469
 20
944.7631835938
 11
330.119934082
 21
944.7632446289
  0
LINE
  8
DOGSV_5
  6
DOGSL_1
 62
     7
 10
100.1198806763
 20
1173.7631835938
 11
100.1198806763
 21
945.7631835938
  0
LINE
  8
DOGSV_5
  6
DOGSL_1
 62
     7
 10
101.1198806763
 20
944.7631835938
 11
329.1198730469
 21
944.7631835938
  0
ARC
  8
DOGSV_5
  6
DOGSL_1
 62
     7
 10
101.1198806763
 20
945.7631835938
 40
1.0
 50
180.0
 51
270.0
  0
LINE
  8
DOGSV_5
  6
DOGSL_1
 62
     7
 10
100.1198806763
 20
944.7631835938
 11
100.1199188232
 21
944.7632446289
  0
LINE
  8
DOGSV_5
  6
DOGSL_1
 62
     7
 10
91.1198806763
 20
934.7631835938
 11
339.1198730469
 21
934.7631835938
  0
LINE
  8
DOGSV_5
  6
DOGSL_1
 62
     7
 10
90.1198806763
 20
1183.7631835938
 11
90.1198806763
 21
935.7631835938
  0
ARC
  8
DOGSV_5
  6
DOGSL_1
 62
     7
 10
91.1198806763
 20
935.7631835938
 40
1.0
 50
180.0
 51
270.0
  0
LINE
  8
DOGSV_5
  6
DOGSL_1
 62
     7
 10
90.1198806763
 20
934.7631835938
 11
90.1199188232
 21
934.7632446289
  0
LINE
  8
DOGSV_5
  6
DOGSL_3
 62
     3
 10
65.0077590942
 20
1059.7631835938
 11
362.4255981445
 21
1059.7631835938
  0
LINE
  8
DOGSV_5
  6
DOGSL_3
 62
     3
 10
215.1198730469
 20
1201.0574951172
 11
215.1198730469
 21
909.9137573242
  0
LINE
  8
DOGSV_5
  6
DOGSL_3
 62
     3
 10
491.75
 20
1059.7631835938
 11
2528.1870117188
 21
1059.7631835938
  0
ARC
  8
DOGSV_5
  6
DOGSL_1
 62
     7
 10
2069.3464355469
 20
1408.7628173828
 40
1.0
 50
180.0
 51
270.0
  0
LINE
  8
DOGSV_5
  6
DOGSL_1
 62
     7
 10
2068.3464355469
 20
1407.7628173828
 11
2068.3464355469
 21
1407.7629394531
  0
LINE
  8
DOGSV_5
  6
DOGSL_1
 62
     7
 10
2065.3464355469
 20
1589.8505859375
 11
2065.3464355469
 21
1612.4517822266
  0
LINE
  8
DOGSV_5
  6
DOGSL_1
 62
     7
 10
2065.3464355469
 20
1759.7628173828
 11
2065.3464355469
 21
1404.7628173828
  0
LINE
  8
DOGSV_5
  6
DOGSL_1
 62
     7
 10
2068.3464355469
 20
1759.7628173828
 11
2068.3464355469
 21
1408.7628173828
  0
CIRCLE
  8
DOGSV_5
  6
DOGSL_1
 62
     3
 10
2190.8479003906
 20
1413.2630615234
 40
9.0
  0
LINE
  8
DOGSV_5
  6
DOGSL_1
 62
     3
 10
2186.9953613281
 20
1405.1290283203
 11
2194.7001953125
 21
1405.1290283203
  0
LINE
  8
DOGSV_5
  6
DOGSL_1
 62
     3
 10
2185.1098632812
 20
1406.3289794922
 11
2196.5856933594
 21
1406.3289794922
  0
LINE
  8
DOGSV_5
  6
DOGSL_1
 62
     3
 10
2183.9099121094
 20
1407.5290527344
 11
2197.7856445312
 21
1407.5290527344
  0
LINE
  8
DOGSV_5
  6
DOGSL_1
 62
     3
 10
2183.0727539062
 20
1408.7290039062
 11
2198.6228027344
 21
1408.7290039062
  0
LINE
  8
DOGSV_5
  6
DOGSL_1
 62
     3
 10
2182.4870605469
 20
1409.9289550781
 11
2199.2065429688
 21
1409.9289550781
  0
LINE
  8
DOGSV_5
  6
DOGSL_1
 62
     3
 10
2182.1049804688
 20
1411.1290283203
 11
2199.5905761719
 21
1411.1290283203
  0
LINE
  8
DOGSV_5
  6
DOGSL_1
 62
     3
 10
2181.8957519531
 20
1412.3289794922
 11
2199.7998046875
 21
1412.3289794922
  0
LINE
  8
DOGSV_5
  6
DOGSL_1
 62
     3
 10
2181.8515625
 20
1413.5290527344
 11
2199.8439941406
 21
1413.5290527344
  0
LINE
  8
DOGSV_5
  6
DOGSL_1
 62
     3
 10
2181.96875
 20
1414.7290039062
 11
2199.7268066406
 21
1414.7290039062
  0
LINE
  8
DOGSV_5
  6
DOGSL_1
 62
     3
 10
2182.2509765625
 20
1415.9289550781
 11
2199.4426269531
 21
1415.9289550781
  0
LINE
  8
DOGSV_5
  6
DOGSL_1
 62
     3
 10
2182.7194824219
 20
1417.1290283203
 11
2198.9741210938
 21
1417.1290283203
  0
LINE
  8
DOGSV_5
  6
DOGSL_1
 62
     3
 10
2183.4086914062
 20
1418.3289794922
 11
2198.2868652344
 21
1418.3289794922
  0
LINE
  8
DOGSV_5
  6
DOGSL_1
 62
     3
 10
2184.3879394531
 20
1419.5290527344
 11
2197.3076171875
 21
1419.5290527344
  0
LINE
  8
DOGSV_5
  6
DOGSL_1
 62
     3
 10
2185.822265625
 20
1420.7290039062
 11
2195.8732910156
 21
1420.7290039062
  0
LINE
  8
DOGSV_5
  6
DOGSL_1
 62
     3
 10
2188.419921875
 20
1421.9289550781
 11
2193.2756347656
 21
1421.9289550781
  0
LINE
  8
DOGSV_5
  6
DOGSL_1
 62
     5
 10
2190.8474121094
 20
1447.0738525391
 11
2190.8474121094
 21
1413.2628173828
  0
LINE
  8
DOGSV_5
  6
DOGSL_1
 62
     5
 10
2226.4575195312
 20
1413.2628173828
 11
2190.8474121094
 21
1413.2628173828
  0
LINE
  8
DOGSV_5
  6
DOGSL_1
 62
     7
 10
2059.3464355469
 20
1184.7631835938
 11
2065.3464355469
 21
1184.7631835938
  0
LINE
  8
DOGSV_5
  6
DOGSL_1
 62
     7
 10
2059.3464355469
 20
934.7631835938
 11
2065.3464355469
 21
934.7631835938
  0
LINE
  8
DOGSV_5
  6
DOGSL_1
 62
     7
 10
2059.3464355469
 20
1184.7631835938
 11
2059.3464355469
 21
1175.7631835938
  0
ARC
  8
DOGSV_5
  6
DOGSL_1
 62
     7
 10
2058.3464355469
 20
1175.7631835938
 40
1.0
 50
270.0
 51
360.0
  0
POINT
  8
DOGSV_5
 10
2059.3464355469
 20
1174.7631835938
  0
LINE
  8
DOGSV_5
  6
DOGSL_1
 62
     7
 10
2059.3464355469
 20
943.7631835938
 11
2059.3464355469
 21
934.7631835938
  0
ARC
  8
DOGSV_5
  6
DOGSL_1
 62
     7
 10
2058.3464355469
 20
943.7631835938
 40
1.0
 50
0.0
 51
90.0
  0
LINE
  8
DOGSV_5
  6
DOGSL_1
 62
     7
 10
2059.3464355469
 20
944.7631835938
 11
2059.3464355469
 21
944.7632446289
  0
ARC
  8
DOGSV_5
  6
DOGSL_1
 62
     7
 10
2069.3464355469
 20
1180.7631835938
 40
1.0
 50
90.0
 51
180.0
  0
POINT
  8
DOGSV_5
 10
2068.3464355469
 20
1181.7631835938
  0
LINE
  8
DOGSV_5
  6
DOGSL_1
 62
     7
 10
2065.3464355469
 20
1184.7631835938
 11
2065.3464355469
 21
934.7631835938
  0
LINE
  8
DOGSV_5
  6
DOGSL_1
 62
     7
 10
2068.3464355469
 20
1180.7631835938
 11
2068.3464355469
 21
938.7631835938
  0
ARC
  8
DOGSV_5
  6
DOGSL_1
 62
     7
 10
2069.3464355469
 20
938.7631835938
 40
1.0
 50
180.0
 51
270.0
  0
LINE
  8
DOGSV_5
  6
DOGSL_1
 62
     7
 10
2068.3464355469
 20
937.7631835938
 11
2068.3464355469
 21
937.7632446289
  0
LINE
  8
DOGSV_5
  6
DOGSL_1
 62
     7
 10
2065.3464355469
 20
1159.7631835938
 11
2068.3464355469
 21
1159.7631835938
  0
LINE
  8
DOGSV_5
  6
DOGSL_1
 62
     7
 10
2065.3464355469
 20
959.7631835938
 11
2068.3464355469
 21
959.7631835938
  0
LINE
  8
DOGSV_5
  6
DOGSL_1
 62
     7
 10
2065.3464355469
 20
1084.7631835938
 11
2068.3464355469
 21
1084.7631835938
  0
LINE
  8
DOGSV_5
  6
DOGSL_1
 62
     7
 10
2065.3464355469
 20
1034.7631835938
 11
2068.3464355469
 21
1034.7631835938
  0
LINE
  8
DOGSV_5
  6
DOGSL_1
 62
     7
 10
1286.3588867188
 20
1184.7631835938
 11
1286.3588867188
 21
934.7631835938
  0
LINE
  8
DOGSV_5
  6
DOGSL_1
 62
     7
 10
1280.3588867188
 20
1184.7631835938
 11
1292.3588867188
 21
1184.7631835938
  0
LINE
  8
DOGSV_5
  6
DOGSL_1
 62
     7
 10
1280.3588867188
 20
934.7631835938
 11
1292.3588867188
 21
934.7631835938
  0
LINE
  8
DOGSV_5
  6
DOGSL_1
 62
     7
 10
1280.3588867188
 20
1184.7631835938
 11
1280.3588867188
 21
1175.7631835938
  0
ARC
  8
DOGSV_5
  6
DOGSL_1
 62
     7
 10
1279.3588867188
 20
1175.7631835938
 40
1.0
 50
270.0
 51
360.0
  0
POINT
  8
DOGSV_5
 10
1280.3588867188
 20
1174.7631835938
  0
LINE
  8
DOGSV_5
  6
DOGSL_1
 62
     7
 10
1292.3588867188
 20
1184.7631835938
 11
1292.3588867188
 21
1175.7631835938
  0
LINE
  8
DOGSV_5
  6
DOGSL_1
 62
     7
 10
1293.3588867188
 20
1174.7631835938
 11
2058.3464355469
 21
1174.7631835938
  0
ARC
  8
DOGSV_5
  6
DOGSL_1
 62
     7
 10
1293.3588867188
 20
1175.7631835938
 40
1.0
 50
180.0
 51
270.0
  0
POINT
  8
DOGSV_5
 10
1292.3588867188
 20
1174.7631835938
  0
LINE
  8
DOGSV_5
  6
DOGSL_1
 62
     7
 10
1280.3588867188
 20
943.7631835938
 11
1280.3588867188
 21
934.7631835938
  0
ARC
  8
DOGSV_5
  6
DOGSL_1
 62
     7
 10
1279.3588867188
 20
943.7631835938
 40
1.0
 50
0.0
 51
90.0
  0
LINE
  8
DOGSV_5
  6
DOGSL_1
 62
     7
 10
1280.3588867188
 20
944.7631835938
 11
1280.3588867188
 21
944.7632446289
  0
LINE
  8
DOGSV_5
  6
DOGSL_1
 62
     7
 10
1293.3588867188
 20
944.7631835938
 11
2058.3464355469
 21
944.7631835938
  0
LINE
  8
DOGSV_5
  6
DOGSL_1
 62
     7
 10
1292.3588867188
 20
934.7631835938
 11
1292.3588867188
 21
943.7631835938
  0
ARC
  8
DOGSV_5
  6
DOGSL_1
 62
     7
 10
1293.3588867188
 20
943.7631835938
 40
1.0
 50
90.0
 51
180.0
  0
LINE
  8
DOGSV_5
  6
DOGSL_1
 62
     7
 10
1292.3588867188
 20
944.7631835938
 11
1292.3588867188
 21
944.7632446289
  0
LINE
  8
DOGSV_5
  6
DOGSL_1
 62
     7
 10
3602.5249023438
 20
1144.3287353516
 11
3301.298828125
 21
1144.3287353516
  0
LINE
  8
DOGSV_5
  6
DOGSL_1
 62
     7
 10
3595.5249023438
 20
1147.3287353516
 11
3339.2990722656
 21
1147.3287353516
  0
LINE
  8
DOGSV_5
  6
DOGSL_1
 62
     7
 10
3602.5249023438
 20
975.1976928711
 11
3301.298828125
 21
975.1976928711
  0
LINE
  8
DOGSV_5
  6
DOGSL_1
 62
     7
 10
3595.5249023438
 20
972.1976928711
 11
3339.2990722656
 21
972.1976928711
  0
LINE
  8
DOGSV_5
  6
DOGSL_1
 62
     7
 10
2529.6828613281
 20
1181.7631835938
 11
2529.6828613281
 21
937.7631835938
  0
LINE
  8
DOGSV_5
  6
DOGSL_1
 62
     7
 10
2532.6828613281
 20
1184.7634277344
 11
2532.6828613281
 21
934.7631835938
  0
LINE
  8
DOGSV_5
  6
DOGSL_1
 62
     7
 10
2538.6828613281
 20
1180.763671875
 11
2532.6828613281
 21
1180.763671875
  0
LINE
  8
DOGSV_5
  6
DOGSL_1
 62
     7
 10
2538.6828613281
 20
1180.763671875
 11
2538.6828613281
 21
1171.763671875
  0
ARC
  8
DOGSV_5
  6
DOGSL_1
 62
     7
 10
2539.6828613281
 20
1171.763671875
 40
1.0
 50
180.0
 51
270.0
  0
POINT
  8
DOGSV_5
 10
2538.6828613281
 20
1170.763671875
  0
LINE
  8
DOGSV_5
  6
DOGSL_1
 62
     7
 10
2538.6828613281
 20
938.7627563477
 11
2532.6828613281
 21
938.7627563477
  0
LINE
  8
DOGSV_5
  6
DOGSL_1
 62
     7
 10
2538.6828613281
 20
938.7627563477
 11
2538.6828613281
 21
947.7627563477
  0
ARC
  8
DOGSV_5
  6
DOGSL_1
 62
     7
 10
2539.6828613281
 20
947.7627563477
 40
1.0
 50
90.0000076294
 51
180.0
  0
LINE
  8
DOGSV_5
  6
DOGSL_1
 62
     7
 10
2538.6828613281
 20
948.7627563477
 11
2538.6828613281
 21
948.7628173828
  0
LINE
  8
DOGSV_5
  6
DOGSL_1
 62
     7
 10
2065.3464355469
 20
934.7631835938
 11
2532.6828613281
 21
934.7631835938
  0
LINE
  8
DOGSV_5
  6
DOGSL_1
 62
     7
 10
2065.3464355469
 20
1184.7631835938
 11
2532.6828613281
 21
1184.7634277344
  0
LINE
  8
DOGSV_5
  6
DOGSL_1
 62
     7
 10
2069.3464355469
 20
937.7631835938
 11
2529.6828613281
 21
937.7631835938
  0
LINE
  8
DOGSV_5
  6
DOGSL_1
 62
     7
 10
2069.3464355469
 20
1181.7631835938
 11
2529.6828613281
 21
1181.7631835938
  0
LINE
  8
DOGSV_5
  6
DOGSL_1
 62
     7
 10
3613.2414550781
 20
1167.763671875
 11
2532.6828613281
 21
1167.763671875
  0
LINE
  8
DOGSV_5
  6
DOGSL_1
 62
     7
 10
3613.2414550781
 20
951.7627563477
 11
2532.6828613281
 21
951.7627563477
  0
LINE
  8
DOGSV_5
  6
DOGSL_1
 62
     7
 10
3606.2414550781
 20
1170.763671875
 11
2539.6828613281
 21
1170.763671875
  0
LINE
  8
DOGSV_5
  6
DOGSL_1
 62
     7
 10
3606.2414550781
 20
948.7627563477
 11
2539.6828613281
 21
948.7627563477
  0
LINE
  8
DOGSV_5
  6
DOGSL_1
 62
     7
 10
2065.3464355469
 20
1404.7628173828
 11
2532.6828613281
 21
1404.7628173828
  0
LINE
  8
DOGSV_5
  6
DOGSL_1
 62
     7
 10
2069.3464355469
 20
1407.7628173828
 11
2528.6828613281
 21
1407.7628173828
  0
ARC
  8
DOGSV_5
  6
DOGSL_1
 62
     7
 10
2528.6828613281
 20
1408.7628173828
 40
1.0
 50
270.0
 51
360.0
  0
LINE
  8
DOGSV_5
  6
DOGSL_1
 62
     7
 10
2532.6828613281
 20
1434.3287353516
 11
2532.6828613281
 21
1455.3287353516
  0
ARC
  8
DOGSV_5
  6
DOGSL_1
 62
     7
 10
2539.6828613281
 20
1451.3287353516
 40
1.0
 50
90.0
 51
180.0
  0
LINE
  8
DOGSV_5
  6
DOGSL_1
 62
     7
 10
2532.6828613281
 20
1442.3287353516
 11
2538.6828613281
 21
1442.3287353516
  0
LINE
  8
DOGSV_5
  6
DOGSL_1
 62
     7
 10
2538.6828613281
 20
1451.3287353516
 11
2538.6828613281
 21
1442.3287353516
  0
LINE
  8
DOGSV_5
  6
DOGSL_1
 62
     7
 10
3595.525390625
 20
1452.3287353516
 11
2539.6828613281
 21
1452.3287353516
  0
LINE
  8
DOGSV_5
  6
DOGSL_1
 62
     7
 10
3602.525390625
 20
1455.3287353516
 11
2532.6828613281
 21
1455.3287353516
  0
LINE
  8
DOGSV_5
  6
DOGSL_1
 62
     7
 10
2529.6828613281
 20
1408.7628173828
 11
2529.6828613281
 21
1900.7628173828
  0
LINE
  8
DOGSV_5
  6
DOGSL_1
 62
     7
 10
2532.6828613281
 20
1404.7628173828
 11
2532.6828613281
 21
1904.7628173828
  0
LINE
  8
DOGSV_5
  6
DOGSL_3
 62
     3
 10
2898.6538085938
 20
1204.3913574219
 11
2898.6538085938
 21
906.295715332
  0
LINE
  8
DOGSV_5
  6
DOGSL_1
 62
     7
 10
2597.6828613281
 20
1059.7631835938
 11
2597.6828613281
 21
1004.7631835938
  0
LINE
  8
DOGSV_5
  6
DOGSL_1
 62
     7
 10
2532.6828613281
 20
1004.7631835938
 11
2597.6828613281
 21
1004.7631835938
  0
LINE
  8
DOGSV_5
  6
DOGSL_1
 62
     7
 10
2533.0610351562
 20
1059.7631835938
 11
2597.6828613281
 21
1059.7631835938
  0
LINE
  8
DOGSV_5
  6
DOGSL_3
 62
     3
 10
2606.1701660156
 20
1059.7631835938
 11
3646.068359375
 21
1059.7631835938
  0
TEXT
  8
DOGSV_5
 62
     3
 10
3649.8039550781
 20
800.887878418
 40
40.0
 50
0.0
  1
CADFILE: RAYS070699
  0
POINT
  8
DOGSV_5
 10
3607.2414550781
 20
1174.7631835938
  0
ARC
  8
DOGSV_5
  6
DOGSL_1
 62
     7
 10
4134.0375976562
 20
1539.8939208984
 40
87.5651626587
 50
180.0
 51
360.0
  0
ARC
  8
DOGSV_5
  6
DOGSL_1
 62
     7
 10
4134.0375976562
 20
1539.8939208984
 40
84.5651626587
 50
180.0
 51
360.0
  0
LINE
  8
DOGSV_5
  6
DOGSL_1
 62
     7
 10
4046.4721679688
 20
1539.8939208984
 11
4046.4721679688
 21
1636.7628173828
  0
LINE
  8
DOGSV_5
  6
DOGSL_1
 62
     7
 10
4221.6025390625
 20
1539.8939208984
 11
4221.6025390625
 21
1636.7628173828
  0
LINE
  8
DOGSV_5
  6
DOGSL_3
 62
     3
 10
4020.8774414062
 20
1539.8939208984
 11
4244.9736328125
 21
1539.8939208984
  0
LINE
  8
DOGSV_5
  6
DOGSL_1
 62
     7
 10
4049.4721679688
 20
1539.8939208984
 11
4049.4721679688
 21
1636.7628173828
  0
LINE
  8
DOGSV_5
  6
DOGSL_1
 62
     7
 10
4218.6025390625
 20
1539.8939208984
 11
4218.6025390625
 21
1636.7628173828
  0
LINE
  8
DOGSV_5
  6
DOGSL_1
 62
     7
 10
4255.0375976562
 20
1636.7628173828
 11
4229.359375
 21
1519.0926513672
  0
LINE
  8
DOGSV_5
  6
DOGSL_3
 62
     3
 10
4134.0375976562
 20
1903.6209716797
 11
4134.0375976562
 21
1415.4665527344
  0
ARC
  8
DOGSV_5
  6
DOGSL_1
 62
     7
 10
3851.771484375
 20
1059.7635498047
 40
87.5651626587
 50
90.0
 51
270.0
  0
ARC
  8
DOGSV_5
  6
DOGSL_1
 62
     7
 10
3851.771484375
 20
1059.7635498047
 40
84.5651626587
 50
90.0
 51
270.0
  0
LINE
  8
DOGSV_5
  6
DOGSL_1
 62
     7
 10
3851.771484375
 20
1147.3287353516
 11
3948.6403808594
 21
1147.3287353516
  0
LINE
  8
DOGSV_5
  6
DOGSL_1
 62
     7
 10
3851.771484375
 20
972.1983032227
 11
3948.6403808594
 21
972.1983032227
  0
LINE
  8
DOGSV_5
  6
DOGSL_3
 62
     3
 10
3851.771484375
 20
1172.9234619141
 11
3851.771484375
 21
948.827331543
  0
LINE
  8
DOGSV_5
  6
DOGSL_1
 62
     7
 10
3851.771484375
 20
1144.3287353516
 11
3948.6403808594
 21
1144.3287353516
  0
LINE
  8
DOGSV_5
  6
DOGSL_1
 62
     7
 10
3851.771484375
 20
975.1983032227
 11
3948.6403808594
 21
975.1983032227
  0
LINE
  8
DOGSV_5
  6
DOGSL_1
 62
     7
 10
3948.6403808594
 20
938.7635498047
 11
3830.9702148438
 21
964.4415893555
  0
LINE
  8
DOGSV_5
  6
DOGSL_3
 62
     3
 10
4215.4985351562
 20
1059.7635498047
 11
3727.3442382812
 21
1059.7635498047
  0
LINE
  8
DOGSV_5
  6
DOGSL_3
 62
     3
 10
4071.6403808594
 20
910.5060424805
 11
4071.6403808594
 21
1202.0809326172
  0
LINE
  8
DOGSV_5
  6
DOGSL_1
 62
     7
 10
4071.6403808594
 20
1170.763671875
 11
3954.6403808594
 21
1170.763671875
  0
LINE
  8
DOGSV_5
  6
DOGSL_1
 62
     7
 10
3951.6403808594
 20
1180.763671875
 11
3951.6403808594
 21
1059.7635498047
  0
LINE
  8
DOGSV_5
  6
DOGSL_1
 62
     7
 10
4071.6403808594
 20
1167.763671875
 11
3954.6403808594
 21
1167.763671875
  0
LINE
  8
DOGSV_5
  6
DOGSL_1
 62
     7
 10
3954.6403808594
 20
1180.763671875
 11
3954.6403808594
 21
1170.763671875
  0
LINE
  8
DOGSV_5
  6
DOGSL_1
 62
     7
 10
3954.6403808594
 20
1167.763671875
 11
3954.6403808594
 21
1059.7635498047
  0
LINE
  8
DOGSV_5
  6
DOGSL_1
 62
     7
 10
4071.6403808594
 20
1180.763671875
 11
3948.6403808594
 21
1180.763671875
  0
LINE
  8
DOGSV_5
  6
DOGSL_1
 62
     7
 10
3948.6403808594
 20
1180.763671875
 11
3948.6403808594
 21
1147.3287353516
  0
LINE
  8
DOGSV_5
  6
DOGSL_1
 62
     7
 10
3948.6403808594
 20
1144.3287353516
 11
3948.6403808594
 21
1059.7635498047
  0
ARC
  8
DOGSV_5
  6
DOGSL_1
 62
     7
 10
4071.6403808594
 20
1059.7635498047
 40
108.0
 50
270.0
 51
90.0
  0
ARC
  8
DOGSV_5
  6
DOGSL_1
 62
     7
 10
4071.6403808594
 20
1059.7635498047
 40
111.0
 50
270.0
 51
90.0
  0
ARC
  8
DOGSV_5
  6
DOGSL_1
 62
     7
 10
4071.6403808594
 20
1059.7635498047
 40
121.0
 50
270.0
 51
90.0
  0
LINE
  8
DOGSV_5
  6
DOGSL_1
 62
     7
 10
4071.6403808594
 20
948.7635498047
 11
3954.6403808594
 21
948.7635498047
  0
LINE
  8
DOGSV_5
  6
DOGSL_1
 62
     7
 10
4071.6403808594
 20
951.7635498047
 11
3954.6403808594
 21
951.7635498047
  0
LINE
  8
DOGSV_5
  6
DOGSL_1
 62
     7
 10
3954.6403808594
 20
938.7635498047
 11
3954.6403808594
 21
948.7635498047
  0
LINE
  8
DOGSV_5
  6
DOGSL_1
 62
     7
 10
4071.6403808594
 20
938.7635498047
 11
3948.6403808594
 21
938.7635498047
  0
LINE
  8
DOGSV_5
  6
DOGSL_1
 62
     7
 10
3948.6403808594
 20
938.7635498047
 11
3948.6403808594
 21
972.198425293
  0
LINE
  8
DOGSV_5
  6
DOGSL_1
 62
     7
 10
3951.6403808594
 20
938.7635498047
 11
3951.6403808594
 21
1059.7635498047
  0
LINE
  8
DOGSV_5
  6
DOGSL_1
 62
     7
 10
3948.6403808594
 20
938.7635498047
 11
3948.6403808594
 21
972.1983032227
  0
LINE
  8
DOGSV_5
  6
DOGSL_1
 62
     7
 10
3948.6403808594
 20
975.1983032227
 11
3948.6403808594
 21
1059.7635498047
  0
LINE
  8
DOGSV_5
  6
DOGSL_1
 62
     7
 10
3954.6403808594
 20
938.7635498047
 11
3954.6403808594
 21
948.7635498047
  0
LINE
  8
DOGSV_5
  6
DOGSL_1
 62
     7
 10
3954.6403808594
 20
952.2815551758
 11
3954.6403808594
 21
1059.7635498047
  0
LINE
  8
DOGSV_5
  6
DOGSL_1
 62
     7
 10
3613.2414550781
 20
1180.763671875
 11
3607.2414550781
 21
1180.763671875
  0
LINE
  8
DOGSV_5
  6
DOGSL_1
 62
     7
 10
3607.2414550781
 20
1180.763671875
 11
3607.2414550781
 21
1171.763671875
  0
ARC
  8
DOGSV_5
  6
DOGSL_1
 62
     7
 10
3606.2414550781
 20
1171.763671875
 40
1.0
 50
270.0
 51
0.0
  0
POINT
  8
DOGSV_5
 10
3607.2414550781
 20
1170.763671875
  0
LINE
  8
DOGSV_5
  6
DOGSL_1
 62
     7
 10
3607.2414550781
 20
944.7631835938
 11
3607.2414550781
 21
944.7632446289
  0
LINE
  8
DOGSV_5
  6
DOGSL_1
 62
     7
 10
3613.2414550781
 20
938.7627563477
 11
3607.2414550781
 21
938.7627563477
  0
LINE
  8
DOGSV_5
  6
DOGSL_1
 62
     7
 10
3607.2414550781
 20
938.7627563477
 11
3607.2414550781
 21
947.7627563477
  0
ARC
  8
DOGSV_5
  6
DOGSL_1
 62
     7
 10
3606.2414550781
 20
947.7627563477
 40
1.0
 50
0.0
 51
90.0
  0
LINE
  8
DOGSV_5
  6
DOGSL_1
 62
     7
 10
3607.2414550781
 20
948.7627563477
 11
3607.2414550781
 21
948.7628173828
  0
LINE
  8
DOGSV_5
  6
DOGSL_1
 62
     7
 10
3613.2414550781
 20
1180.763671875
 11
3613.2414550781
 21
938.7627563477
  0
ARC
  8
DOGSV_5
  6
DOGSL_1
 62
     7
 10
4134.0375976562
 20
1539.8939208984
 40
97.5651550293
 50
192.3101196289
 51
347.6898193359
  0
LINE
  8
DOGSV_5
  6
DOGSL_1
 62
     7
 10
3596.5249023438
 20
1157.3287353516
 11
3602.5249023438
 21
1157.3287353516
  0
LINE
  8
DOGSV_5
  6
DOGSL_1
 62
     7
 10
3596.5249023438
 20
1157.3287353516
 11
3596.5249023438
 21
1148.3287353516
  0
ARC
  8
DOGSV_5
  6
DOGSL_1
 62
     7
 10
3595.5249023438
 20
1148.3287353516
 40
1.0
 50
270.0
 51
0.0
  0
POINT
  8
DOGSV_5
 10
3596.5249023438
 20
1147.3287353516
  0
LINE
  8
DOGSV_5
  6
DOGSL_1
 62
     7
 10
3602.5249023438
 20
1157.3287353516
 11
3602.5249023438
 21
1059.7631835938
  0
LINE
  8
DOGSV_5
  6
DOGSL_1
 62
     7
 10
3596.5249023438
 20
962.1976318359
 11
3602.5249023438
 21
962.1976318359
  0
LINE
  8
DOGSV_5
  6
DOGSL_1
 62
     7
 10
3596.5249023438
 20
962.1976318359
 11
3596.5249023438
 21
971.1976928711
  0
ARC
  8
DOGSV_5
  6
DOGSL_1
 62
     7
 10
3595.5249023438
 20
971.1976928711
 40
1.0
 50
0.0
 51
90.0
  0
POINT
  8
DOGSV_5
 10
3596.5249023438
 20
972.1976928711
  0
LINE
  8
DOGSV_5
  6
DOGSL_1
 62
     7
 10
3602.5249023438
 20
962.1976318359
 11
3602.5249023438
 21
1059.7631835938
  0
LINE
  8
DOGSV_5
  6
DOGSL_3
 62
     3
 10
3593.7907714844
 20
1152.3287353516
 11
3615.474609375
 21
1152.3287353516
  0
LINE
  8
DOGSV_5
  6
DOGSL_3
 62
     3
 10
3593.7907714844
 20
967.1976318359
 11
3615.474609375
 21
967.1976318359
  0
LINE
  8
DOGSV_5
  6
DOGSL_3
 62
     3
 10
3626.2890625
 20
1175.763671875
 11
3604.4895019531
 21
1175.763671875
  0
LINE
  8
DOGSV_5
  6
DOGSL_3
 62
     3
 10
3626.2890625
 20
943.7627563477
 11
3604.4895019531
 21
943.7627563477
  0
ARC
  8
DOGSV_5
  6
DOGSL_1
 62
     7
 10
3595.525390625
 20
1451.3287353516
 40
1.0
 50
0.0
 51
90.0
  0
POINT
  8
DOGSV_5
 10
3596.525390625
 20
1452.3287353516
  0
LINE
  8
DOGSV_5
  6
DOGSL_1
 62
     7
 10
3596.525390625
 20
1442.3287353516
 11
3602.525390625
 21
1442.3287353516
  0
LINE
  8
DOGSV_5
  6
DOGSL_1
 62
     7
 10
3596.525390625
 20
1442.3287353516
 11
3596.525390625
 21
1451.3287353516
  0
LINE
  8
DOGSV_5
  6
DOGSL_1
 62
     7
 10
3602.525390625
 20
1442.3287353516
 11
3602.525390625
 21
1639.7628173828
  0
LINE
  8
DOGSV_5
  6
DOGSL_3
 62
     3
 10
3592.2683105469
 20
1447.3287353516
 11
3616.7846679688
 21
1447.3287353516
  0
LINE
  8
DOGSV_5
  6
DOGSL_1
 62
     7
 10
3948.6403808594
 20
1180.763671875
 11
3830.9702148438
 21
1155.0855712891
  0
ARC
  8
DOGSV_5
  6
DOGSL_1
 62
     7
 10
3851.771484375
 20
1059.7635498047
 40
97.5651550293
 50
102.3101348877
 51
257.6898498535
  0
LINE
  8
DOGSV_5
  6
DOGSL_3
 62
     3
 10
4017.9223632812
 20
1637.8288574219
 11
4043.6003417969
 21
1520.1586914062
  0
LINE
  8
DOGSV_5
  6
DOGSL_3
 62
     3
 10
4250.15234375
 20
1637.8288574219
 11
4224.4741210938
 21
1520.1586914062
  0
CIRCLE
  8
DOGSV_5
  6
DOGSL_1
 62
     7
 10
4134.0375976562
 20
1447.3288574219
 40
1.6000000238
  0
CIRCLE
  8
DOGSV_5
  6
DOGSL_1
 62
     7
 10
4087.7548828125
 20
1459.7301025391
 40
1.6000000238
  0
LINE
  8
DOGSV_5
  6
DOGSL_3
 62
     3
 10
4089.3623046875
 20
1462.5145263672
 11
4086.0173339844
 21
1456.7208251953
  0
ARC
  8
DOGSV_5
  6
DOGSL_3
 62
     3
 10
4134.0375976562
 20
1539.8939208984
 40
92.5651397705
 50
237.5302581787
 51
242.3043365479
  0
ARC
  8
DOGSV_5
  6
DOGSL_3
 62
     3
 10
4134.0375976562
 20
1539.8939208984
 40
92.5651550293
 50
267.5169067383
 51
273.5374755859
  0
CIRCLE
  8
DOGSV_5
  6
DOGSL_1
 62
     7
 10
4180.3198242188
 20
1459.7301025391
 40
1.6000000238
  0
LINE
  8
DOGSV_5
  6
DOGSL_3
 62
     3
 10
4178.7124023438
 20
1462.5145263672
 11
4182.0576171875
 21
1456.7208251953
  0
ARC
  8
DOGSV_5
  6
DOGSL_3
 62
     3
 10
4134.0375976562
 20
1539.8939208984
 40
92.5651397705
 50
297.6956481934
 51
302.4697265625
  0
LINE
  8
DOGSV_5
  6
DOGSL_1
 62
     7
 10
513.3713378906
 20
1884.7628173828
 11
507.371307373
 21
1884.7628173828
  0
LINE
  8
DOGSV_5
  6
DOGSL_3
 62
     3
 10
517.2270507812
 20
1879.7628173828
 11
493.9969177246
 21
1879.7628173828
  0
LINE
  8
DOGSV_5
  6
DOGSL_1
 62
     7
 10
507.371307373
 20
1871.7628173828
 11
2065.3459472656
 21
1871.7628173828
  0
LINE
  8
DOGSV_5
  6
DOGSL_1
 62
     7
 10
507.371307373
 20
1634.7628173828
 11
513.3713378906
 21
1634.7628173828
  0
LINE
  8
DOGSV_5
  6
DOGSL_1
 62
     7
 10
513.3713378906
 20
1643.7462158203
 11
513.3713378906
 21
1634.7628173828
  0
ARC
  8
DOGSV_5
  6
DOGSL_1
 62
     7
 10
514.3713378906
 20
1643.7462158203
 40
1.0000157356
 50
89.0557403564
 51
179.9995727539
  0
LINE
  8
DOGSV_5
  6
DOGSL_1
 62
     7
 10
513.3713378906
 20
1644.7628173828
 11
513.3713378906
 21
1644.7629394531
  0
LINE
  8
DOGSV_5
  6
DOGSL_1
 62
     7
 10
513.3713378906
 20
1875.7628173828
 11
513.3713378906
 21
1884.7628173828
  0
ARC
  8
DOGSV_5
  6
DOGSL_1
 62
     7
 10
514.3713378906
 20
1875.7628173828
 40
1.0
 50
180.0
 51
270.0
  0
LINE
  8
DOGSV_5
  6
DOGSL_1
 62
     7
 10
513.3713378906
 20
1874.7628173828
 11
513.3713378906
 21
1874.7629394531
  0
LINE
  8
DOGSV_5
  6
DOGSL_3
 62
     3
 10
517.2270507812
 20
1639.7628173828
 11
493.9969177246
 21
1639.7628173828
  0
LINE
  8
DOGSV_5
  6
DOGSL_1
 62
     7
 10
507.371307373
 20
1647.7628173828
 11
2065.3464355469
 21
1622.0965576172
  0
LINE
  8
DOGSV_5
  6
DOGSL_1
 62
     7
 10
507.371307373
 20
1871.7628173828
 11
507.371307373
 21
1884.7628173828
  0
LINE
  8
DOGSV_5
  6
DOGSL_1
 62
     7
 10
507.371307373
 20
1759.7628173828
 11
507.371307373
 21
1884.7628173828
  0
LINE
  8
DOGSV_5
  6
DOGSL_1
 62
     7
 10
507.371307373
 20
1634.7628173828
 11
507.371307373
 21
1759.7628173828
  0
LINE
  8
DOGSV_5
  6
DOGSL_1
 62
     7
 10
514.3713378906
 20
1874.7628173828
 11
1279.3588867188
 21
1874.7628173828
  0
LINE
  8
DOGSV_5
  6
DOGSL_1
 62
     7
 10
514.3878173828
 20
1644.74609375
 11
1279.3753662109
 21
1632.1434326172
  0
LINE
  8
DOGSV_5
  6
DOGSL_1
 62
     7
 10
2059.3464355469
 20
1609.4162597656
 11
2059.3464355469
 21
1609.4163818359
  0
ARC
  8
DOGSV_5
  6
DOGSL_1
 62
     7
 10
2069.3459472656
 20
1900.7628173828
 40
1.0
 50
90.0
 51
180.0
  0
LINE
  8
DOGSV_5
  6
DOGSL_1
 62
     7
 10
2065.3459472656
 20
1904.7628173828
 11
2065.3459472656
 21
1881.7628173828
  0
LINE
  8
DOGSV_5
  6
DOGSL_1
 62
     7
 10
2068.3459472656
 20
1900.7628173828
 11
2068.3459472656
 21
1759.7628173828
  0
LINE
  8
DOGSV_5
  6
DOGSL_1
 62
     7
 10
2065.3459472656
 20
1904.7628173828
 11
2065.3459472656
 21
1759.7628173828
  0
CIRCLE
  8
DOGSV_5
  6
DOGSL_1
 62
     3
 10
2190.8479003906
 20
1896.2625732422
 40
9.0
  0
LINE
  8
DOGSV_5
  6
DOGSL_1
 62
     3
 10
2186.9953613281
 20
1904.3967285156
 11
2194.7001953125
 21
1904.3967285156
  0
LINE
  8
DOGSV_5
  6
DOGSL_1
 62
     3
 10
2185.1098632812
 20
1903.1966552734
 11
2196.5856933594
 21
1903.1966552734
  0
LINE
  8
DOGSV_5
  6
DOGSL_1
 62
     3
 10
2183.9099121094
 20
1901.9967041016
 11
2197.7856445312
 21
1901.9967041016
  0
LINE
  8
DOGSV_5
  6
DOGSL_1
 62
     3
 10
2183.0727539062
 20
1900.7966308594
 11
2198.6228027344
 21
1900.7966308594
  0
LINE
  8
DOGSV_5
  6
DOGSL_1
 62
     3
 10
2182.4870605469
 20
1899.5966796875
 11
2199.2065429688
 21
1899.5966796875
  0
LINE
  8
DOGSV_5
  6
DOGSL_1
 62
     3
 10
2182.1049804688
 20
1898.3967285156
 11
2199.5905761719
 21
1898.3967285156
  0
LINE
  8
DOGSV_5
  6
DOGSL_1
 62
     3
 10
2181.8957519531
 20
1897.1966552734
 11
2199.7998046875
 21
1897.1966552734
  0
LINE
  8
DOGSV_5
  6
DOGSL_1
 62
     3
 10
2181.8515625
 20
1895.9967041016
 11
2199.8439941406
 21
1895.9967041016
  0
LINE
  8
DOGSV_5
  6
DOGSL_1
 62
     3
 10
2181.96875
 20
1894.7966308594
 11
2199.7268066406
 21
1894.7966308594
  0
LINE
  8
DOGSV_5
  6
DOGSL_1
 62
     3
 10
2182.2509765625
 20
1893.5966796875
 11
2199.4426269531
 21
1893.5966796875
  0
LINE
  8
DOGSV_5
  6
DOGSL_1
 62
     3
 10
2182.7194824219
 20
1892.3967285156
 11
2198.9741210938
 21
1892.3967285156
  0
LINE
  8
DOGSV_5
  6
DOGSL_1
 62
     3
 10
2183.4086914062
 20
1891.1966552734
 11
2198.2868652344
 21
1891.1966552734
  0
LINE
  8
DOGSV_5
  6
DOGSL_1
 62
     3
 10
2184.3879394531
 20
1889.9967041016
 11
2197.3076171875
 21
1889.9967041016
  0
LINE
  8
DOGSV_5
  6
DOGSL_1
 62
     3
 10
2185.822265625
 20
1888.7966308594
 11
2195.8732910156
 21
1888.7966308594
  0
LINE
  8
DOGSV_5
  6
DOGSL_1
 62
     3
 10
2188.419921875
 20
1887.5966796875
 11
2193.2756347656
 21
1887.5966796875
  0
ARC
  8
DOGSV_5
  6
DOGSL_1
 62
     7
 10
2058.3459472656
 20
1875.7628173828
 40
1.0
 50
270.0
 51
360.0
  0
LINE
  8
DOGSV_5
  6
DOGSL_1
 62
     7
 10
2059.3459472656
 20
1874.7628173828
 11
2059.3459472656
 21
1874.7629394531
  0
LINE
  8
DOGSV_5
  6
DOGSL_1
 62
     7
 10
2059.3459472656
 20
1884.7628173828
 11
2065.3459472656
 21
1884.7628173828
  0
LINE
  8
DOGSV_5
  6
DOGSL_1
 62
     7
 10
2059.3459472656
 20
1875.7628173828
 11
2059.3459472656
 21
1884.7628173828
  0
LINE
  8
DOGSV_5
  6
DOGSL_1
 62
     7
 10
2059.3464355469
 20
1609.1966552734
 11
2065.3464355469
 21
1609.1966552734
  0
LINE
  8
DOGSV_5
  6
DOGSL_1
 62
     7
 10
2059.3464355469
 20
1618.3104248047
 11
2059.3464355469
 21
1609.1966552734
  0
ARC
  8
DOGSV_5
  6
DOGSL_1
 62
     7
 10
2058.3464355469
 20
1618.3104248047
 40
1.0000157356
 50
359.9995727539
 51
89.0557403564
  0
POINT
  8
DOGSV_5
 10
2059.3464355469
 20
1619.2940673828
  0
LINE
  8
DOGSV_5
  6
DOGSL_3
 62
     3
 10
2080.333984375
 20
1740.5395507812
 11
2053.0327148438
 21
1740.5395507812
  0
LINE
  8
DOGSV_5
  6
DOGSL_1
 62
     5
 10
2224.8771972656
 20
1896.2628173828
 11
2190.8474121094
 21
1896.2628173828
  0
LINE
  8
DOGSV_5
  6
DOGSL_1
 62
     5
 10
2190.8474121094
 20
1896.2628173828
 11
2190.8474121094
 21
1868.2891845703
  0
ARC
  8
DOGSV_5
  6
DOGSL_1
 62
     5
 10
2065.3464355469
 20
1651.0494384766
 40
25.0
 50
180.0
 51
360.0
  0
LINE
  8
DOGSV_5
  6
DOGSL_1
 62
     7
 10
2065.3459472656
 20
1904.7628173828
 11
2532.6828613281
 21
1904.7628173828
  0
LINE
  8
DOGSV_5
  6
DOGSL_1
 62
     7
 10
2069.3459472656
 20
1901.7628173828
 11
2528.6828613281
 21
1901.7628173828
  0
ARC
  8
DOGSV_5
  6
DOGSL_1
 62
     5
 10
2065.3464355469
 20
1759.7628173828
 40
100.0000152588
 50
284.4775085449
 51
255.5224609375
  0
LINE
  8
DOGSV_5
  6
DOGSL_1
 62
     5
 10
2040.3463134766
 20
1651.0494384766
 11
2040.3463134766
 21
1662.9382324219
  0
LINE
  8
DOGSV_5
  6
DOGSL_1
 62
     5
 10
2090.3464355469
 20
1651.0494384766
 11
2090.3464355469
 21
1662.9382324219
  0
LINE
  8
DOGSV_5
  6
DOGSL_1
 62
     7
 10
1280.3588867188
 20
1884.7631835938
 11
1292.3588867188
 21
1884.7631835938
  0
LINE
  8
DOGSV_5
  6
DOGSL_1
 62
     7
 10
1280.3588867188
 20
1884.7631835938
 11
1280.3588867188
 21
1875.7631835938
  0
ARC
  8
DOGSV_5
  6
DOGSL_1
 62
     7
 10
1279.3588867188
 20
1875.7631835938
 40
1.0
 50
270.0
 51
360.0
  0
POINT
  8
DOGSV_5
 10
1280.3588867188
 20
1874.7631835938
  0
LINE
  8
DOGSV_5
  6
DOGSL_1
 62
     7
 10
1292.3588867188
 20
1884.7631835938
 11
1292.3588867188
 21
1875.7631835938
  0
ARC
  8
DOGSV_5
  6
DOGSL_1
 62
     7
 10
1293.3588867188
 20
1875.7631835938
 40
1.0
 50
180.0
 51
270.0
  0
POINT
  8
DOGSV_5
 10
1292.3588867188
 20
1874.7631835938
  0
LINE
  8
DOGSV_5
  6
DOGSL_1
 62
     7
 10
1293.3588867188
 20
1874.7628173828
 11
2058.3459472656
 21
1874.7628173828
  0
ARC
  8
DOGSV_5
  6
DOGSL_1
 62
     7
 10
1279.3588867188
 20
1631.1435546875
 40
1.0000157356
 50
359.9995727539
 51
89.0557403564
  0
POINT
  8
DOGSV_5
 10
1280.3588867188
 20
1632.1273193359
  0
LINE
  8
DOGSV_5
  6
DOGSL_1
 62
     7
 10
1293.3753662109
 20
1631.9128417969
 11
2058.3627929688
 21
1619.3103027344
  0
ARC
  8
DOGSV_5
  6
DOGSL_1
 62
     7
 10
1293.3588867188
 20
1630.9129638672
 40
1.0
 50
89.0561752319
 51
180.0
  0
LINE
  8
DOGSV_5
  6
DOGSL_1
 62
     7
 10
1292.3588867188
 20
1631.9295654297
 11
1292.3588867188
 21
1631.9296875
  0
LINE
  8
DOGSV_5
  6
DOGSL_1
 62
     7
 10
1292.3588867188
 20
1621.9282226562
 11
1292.3588867188
 21
1630.9129638672
  0
LINE
  8
DOGSV_5
  6
DOGSL_1
 62
     7
 10
1292.3588867188
 20
1621.9282226562
 11
1280.3588867188
 21
1621.9282226562
  0
LINE
  8
DOGSV_5
  6
DOGSL_1
 62
     7
 10
1286.3588867188
 20
1621.9282226562
 11
1286.3588867188
 21
1884.7631835938
  0
LINE
  8
DOGSV_5
  6
DOGSL_1
 62
     7
 10
1280.3588867188
 20
1621.9282226562
 11
1280.3588867188
 21
1631.1435546875
  0
ARC
  8
DOGSV_5
  6
DOGSL_1
 62
     7
 10
2638.1538085938
 20
1925.7628173828
 40
1.0
 50
90.0
 51
180.0
  0
ARC
  8
DOGSV_5
  6
DOGSL_1
 62
     7
 10
2636.1538085938
 20
1927.7628173828
 40
1.0
 50
90.0
 51
180.0
  0
LINE
  8
DOGSV_5
  6
DOGSL_1
 62
     7
 10
2638.1538085938
 20
1926.7628173828
 11
3158.1538085938
 21
1926.7628173828
  0
LINE
  8
DOGSV_5
  6
DOGSL_1
 62
     7
 10
2636.1538085938
 20
1928.7628173828
 11
3160.1538085938
 21
1928.7628173828
  0
ARC
  8
DOGSV_5
  6
DOGSL_1
 62
     7
 10
3160.1538085938
 20
1927.7628173828
 40
1.0
 50
0.0
 51
90.0
  0
ARC
  8
DOGSV_5
  6
DOGSL_1
 62
     7
 10
3158.1538085938
 20
1925.7628173828
 40
1.0
 50
0.0
 51
90.0
  0
CIRCLE
  8
DOGSV_5
  6
DOGSL_1
 62
     3
 10
3296.34765625
 20
1654.7626953125
 40
9.0
  0
LINE
  8
DOGSV_5
  6
DOGSL_1
 62
     3
 10
3292.4951171875
 20
1662.8968505859
 11
3300.1999511719
 21
1662.8968505859
  0
LINE
  8
DOGSV_5
  6
DOGSL_1
 62
     3
 10
3290.6096191406
 20
1661.6967773438
 11
3302.0854492188
 21
1661.6967773438
  0
LINE
  8
DOGSV_5
  6
DOGSL_1
 62
     3
 10
3289.4096679688
 20
1660.4968261719
 11
3303.2854003906
 21
1660.4968261719
  0
LINE
  8
DOGSV_5
  6
DOGSL_1
 62
     3
 10
3288.5725097656
 20
1659.2967529297
 11
3304.1225585938
 21
1659.2967529297
  0
LINE
  8
DOGSV_5
  6
DOGSL_1
 62
     3
 10
3287.9868164062
 20
1658.0968017578
 11
3304.7062988281
 21
1658.0968017578
  0
LINE
  8
DOGSV_5
  6
DOGSL_1
 62
     3
 10
3287.6047363281
 20
1656.8968505859
 11
3305.0903320312
 21
1656.8968505859
  0
LINE
  8
DOGSV_5
  6
DOGSL_1
 62
     3
 10
3287.3955078125
 20
1655.6967773438
 11
3305.2995605469
 21
1655.6967773438
  0
LINE
  8
DOGSV_5
  6
DOGSL_1
 62
     3
 10
3287.3513183594
 20
1654.4968261719
 11
3305.34375
 21
1654.4968261719
  0
LINE
  8
DOGSV_5
  6
DOGSL_1
 62
     3
 10
3287.4685058594
 20
1653.2967529297
 11
3305.2265625
 21
1653.2967529297
  0
LINE
  8
DOGSV_5
  6
DOGSL_1
 62
     3
 10
3287.7507324219
 20
1652.0968017578
 11
3304.9423828125
 21
1652.0968017578
  0
LINE
  8
DOGSV_5
  6
DOGSL_1
 62
     3
 10
3288.2192382812
 20
1650.8968505859
 11
3304.4738769531
 21
1650.8968505859
  0
LINE
  8
DOGSV_5
  6
DOGSL_1
 62
     3
 10
3288.9084472656
 20
1649.6967773438
 11
3303.7866210938
 21
1649.6967773438
  0
LINE
  8
DOGSV_5
  6
DOGSL_1
 62
     3
 10
3289.8876953125
 20
1648.4968261719
 11
3302.8073730469
 21
1648.4968261719
  0
LINE
  8
DOGSV_5
  6
DOGSL_1
 62
     3
 10
3291.3220214844
 20
1647.2967529297
 11
3301.373046875
 21
1647.2967529297
  0
LINE
  8
DOGSV_5
  6
DOGSL_1
 62
     3
 10
3293.9196777344
 20
1646.0968017578
 11
3298.775390625
 21
1646.0968017578
  0
LINE
  8
DOGSV_5
  6
DOGSL_1
 62
     5
 10
3296.3474121094
 20
1677.5810546875
 11
3296.3474121094
 21
1625.3015136719
  0
ARC
  8
DOGSV_5
  6
DOGSL_1
 62
     7
 10
2528.6828613281
 20
1900.7628173828
 40
1.0
 50
0.0
 51
90.0
  0
LINE
  8
DOGSV_5
  6
DOGSL_1
 62
     7
 10
2538.6828613281
 20
1880.7626953125
 11
2532.6828613281
 21
1880.7626953125
  0
LINE
  8
DOGSV_5
  6
DOGSL_1
 62
     7
 10
2538.6828613281
 20
1880.7626953125
 11
2538.6828613281
 21
1871.7626953125
  0
ARC
  8
DOGSV_5
  6
DOGSL_1
 62
     7
 10
2539.6828613281
 20
1871.7626953125
 40
1.0
 50
180.0
 51
270.0
  0
LINE
  8
DOGSV_5
  6
DOGSL_1
 62
     7
 10
2538.6828613281
 20
1870.7626953125
 11
2538.6828613281
 21
1870.7628173828
  0
LINE
  8
DOGSV_5
  6
DOGSL_1
 62
     7
 10
3599.3474121094
 20
1870.7626953125
 11
2539.6828613281
 21
1870.7626953125
  0
LINE
  8
DOGSV_5
  6
DOGSL_1
 62
     7
 10
3606.3474121094
 20
1867.7626953125
 11
2532.6828613281
 21
1867.7626953125
  0
LINE
  8
DOGSV_5
  6
DOGSL_1
 62
     7
 10
2532.6828613281
 20
1642.7628173828
 11
3606.3474121094
 21
1642.7628173828
  0
LINE
  8
DOGSV_5
  6
DOGSL_1
 62
     7
 10
2532.6828613281
 20
1639.7628173828
 11
3606.3474121094
 21
1639.7628173828
  0
LINE
  8
DOGSV_5
  6
DOGSL_1
 62
     7
 10
2532.6828613281
 20
1636.7628173828
 11
3602.525390625
 21
1636.7628173828
  0
LINE
  8
DOGSV_5
  6
DOGSL_1
 62
     7
 10
2597.6828613281
 20
1636.7628173828
 11
2597.6828613281
 21
1642.7628173828
  0
LINE
  8
DOGSV_5
  6
DOGSL_1
 62
     7
 10
2635.1538085938
 20
1927.7628173828
 11
2635.1538085938
 21
1875.7628173828
  0
LINE
  8
DOGSV_5
  6
DOGSL_1
 62
     7
 10
3159.1538085938
 20
1925.7628173828
 11
3159.1538085938
 21
1874.7628173828
  0
LINE
  8
DOGSV_5
  6
DOGSL_1
 62
     7
 10
3160.1538085938
 20
1870.7628173828
 11
3168.1538085938
 21
1870.7628173828
  0
LINE
  8
DOGSV_5
  6
DOGSL_1
 62
     7
 10
3169.1538085938
 20
1871.7628173828
 11
3169.1538085938
 21
1873.7628173828
  0
LINE
  8
DOGSV_5
  6
DOGSL_1
 62
     7
 10
3168.1538085938
 20
1874.7628173828
 11
3162.1538085938
 21
1874.7628173828
  0
LINE
  8
DOGSV_5
  6
DOGSL_1
 62
     7
 10
3159.1538085938
 20
1874.7628173828
 11
3159.1538085938
 21
1871.7628173828
  0
LINE
  8
DOGSV_5
  6
DOGSL_1
 62
     7
 10
3161.1538085938
 20
1927.7628173828
 11
3161.1538085938
 21
1875.7628173828
  0
ARC
  8
DOGSV_5
  6
DOGSL_1
 62
     7
 10
3162.1538085938
 20
1875.7628173828
 40
1.0
 50
180.0
 51
270.0
  0
ARC
  8
DOGSV_5
  6
DOGSL_1
 62
     7
 10
3168.1538085938
 20
1873.7628173828
 40
1.0
 50
0.0
 51
90.0
  0
ARC
  8
DOGSV_5
  6
DOGSL_1
 62
     7
 10
3168.1538085938
 20
1871.7628173828
 40
1.0
 50
270.0
 51
360.0
  0
ARC
  8
DOGSV_5
  6
DOGSL_1
 62
     7
 10
3160.1538085938
 20
1871.7628173828
 40
1.0
 50
180.0
 51
270.0
  0
LINE
  8
DOGSV_5
  6
DOGSL_3
 62
     3
 10
2898.6538085938
 20
1941.7922363281
 11
2898.6538085938
 21
1870.7628173828
  0
LINE
  8
DOGSV_5
  6
DOGSL_1
 62
     7
 10
2636.1538085938
 20
1870.7628173828
 11
2628.1538085938
 21
1870.7628173828
  0
LINE
  8
DOGSV_5
  6
DOGSL_1
 62
     7
 10
2627.1538085938
 20
1871.7628173828
 11
2627.1538085938
 21
1873.7628173828
  0
LINE
  8
DOGSV_5
  6
DOGSL_1
 62
     7
 10
2628.1538085938
 20
1874.7628173828
 11
2634.1538085938
 21
1874.7628173828
  0
ARC
  8
DOGSV_5
  6
DOGSL_1
 62
     7
 10
2634.1538085938
 20
1875.7628173828
 40
1.0
 50
270.0
 51
0.0
  0
ARC
  8
DOGSV_5
  6
DOGSL_1
 62
     7
 10
2628.1538085938
 20
1873.7628173828
 40
1.0
 50
90.0
 51
180.0
  0
ARC
  8
DOGSV_5
  6
DOGSL_1
 62
     7
 10
2628.1538085938
 20
1871.7628173828
 40
1.0
 50
180.0
 51
270.0
  0
ARC
  8
DOGSV_5
  6
DOGSL_1
 62
     7
 10
2636.1538085938
 20
1871.7628173828
 40
1.0
 50
270.0
 51
0.0
  0
LINE
  8
DOGSV_5
  6
DOGSL_1
 62
     7
 10
2637.1538085938
 20
1925.7628173828
 11
2637.1538085938
 21
1871.7628173828
  0
LINE
  8
DOGSV_5
  6
DOGSL_3
 62
     3
 10
4283.294921875
 20
1759.7628173828
 11
3991.7199707031
 21
1759.7628173828
  0
LINE
  8
DOGSV_5
  6
DOGSL_1
 62
     7
 10
4023.0373535156
 20
1759.7628173828
 11
4023.0373535156
 21
1642.7628173828
  0
LINE
  8
DOGSV_5
  6
DOGSL_1
 62
     7
 10
4013.0373535156
 20
1639.7628173828
 11
4134.0375976562
 21
1639.7628173828
  0
LINE
  8
DOGSV_5
  6
DOGSL_1
 62
     7
 10
4026.0373535156
 20
1759.7628173828
 11
4026.0373535156
 21
1642.7628173828
  0
LINE
  8
DOGSV_5
  6
DOGSL_1
 62
     7
 10
4013.0373535156
 20
1642.7628173828
 11
4023.0373535156
 21
1642.7628173828
  0
LINE
  8
DOGSV_5
  6
DOGSL_1
 62
     7
 10
4026.0373535156
 20
1642.7628173828
 11
4134.0375976562
 21
1642.7628173828
  0
LINE
  8
DOGSV_5
  6
DOGSL_1
 62
     7
 10
4013.0373535156
 20
1759.7628173828
 11
4013.0373535156
 21
1636.7628173828
  0
LINE
  8
DOGSV_5
  6
DOGSL_1
 62
     7
 10
4013.0373535156
 20
1636.7628173828
 11
4046.4721679688
 21
1636.7628173828
  0
LINE
  8
DOGSV_5
  6
DOGSL_1
 62
     7
 10
4049.4721679688
 20
1636.7628173828
 11
4134.0375976562
 21
1636.7628173828
  0
ARC
  8
DOGSV_5
  6
DOGSL_1
 62
     7
 10
4134.0375976562
 20
1759.7628173828
 40
108.0
 50
0.0
 51
180.0
  0
ARC
  8
DOGSV_5
  6
DOGSL_1
 62
     7
 10
4134.0375976562
 20
1759.7628173828
 40
111.0
 50
0.0
 51
180.0
  0
ARC
  8
DOGSV_5
  6
DOGSL_1
 62
     7
 10
4134.0375976562
 20
1759.7628173828
 40
121.0
 50
0.0
 51
180.0
  0
LINE
  8
DOGSV_5
  6
DOGSL_1
 62
     7
 10
4245.0375976562
 20
1759.7628173828
 11
4245.0375976562
 21
1642.7628173828
  0
LINE
  8
DOGSV_5
  6
DOGSL_1
 62
     7
 10
4242.0375976562
 20
1759.7628173828
 11
4242.0375976562
 21
1642.7628173828
  0
LINE
  8
DOGSV_5
  6
DOGSL_1
 62
     7
 10
4255.0375976562
 20
1642.7628173828
 11
4245.0375976562
 21
1642.7628173828
  0
LINE
  8
DOGSV_5
  6
DOGSL_1
 62
     7
 10
4255.0375976562
 20
1759.7628173828
 11
4255.0375976562
 21
1636.7628173828
  0
LINE
  8
DOGSV_5
  6
DOGSL_1
 62
     7
 10
4255.0375976562
 20
1636.7628173828
 11
4221.6025390625
 21
1636.7628173828
  0
LINE
  8
DOGSV_5
  6
DOGSL_1
 62
     7
 10
4255.0375976562
 20
1639.7628173828
 11
4134.0375976562
 21
1639.7628173828
  0
LINE
  8
DOGSV_5
  6
DOGSL_1
 62
     7
 10
4255.0375976562
 20
1636.7628173828
 11
4221.6025390625
 21
1636.7628173828
  0
LINE
  8
DOGSV_5
  6
DOGSL_1
 62
     7
 10
4218.6025390625
 20
1636.7628173828
 11
4134.0375976562
 21
1636.7628173828
  0
LINE
  8
DOGSV_5
  6
DOGSL_1
 62
     7
 10
4255.0375976562
 20
1642.7628173828
 11
4245.0375976562
 21
1642.7628173828
  0
LINE
  8
DOGSV_5
  6
DOGSL_1
 62
     7
 10
4241.51953125
 20
1642.7628173828
 11
4134.0375976562
 21
1642.7628173828
  0
LINE
  8
DOGSV_5
  6
DOGSL_1
 62
     7
 10
4013.0373535156
 20
1636.7628173828
 11
4038.7153320312
 21
1519.0926513672
  0
CIRCLE
  8
DOGSV_5
  6
DOGSL_1
 62
     7
 10
4134.0375976562
 20
1875.7628173828
 40
1.6000000238
  0
CIRCLE
  8
DOGSV_5
  6
DOGSL_1
 62
     7
 10
4076.0373535156
 20
1860.2218017578
 40
1.6000000238
  0
LINE
  8
DOGSV_5
  6
DOGSL_3
 62
     3
 10
4077.716796875
 20
1857.3132324219
 11
4074.4689941406
 21
1862.9383544922
  0
ARC
  8
DOGSV_5
  6
DOGSL_3
 62
     3
 10
4134.0375976562
 20
1759.7628173828
 40
116.0000228882
 50
118.2066268921
 51
121.8914260864
  0
ARC
  8
DOGSV_5
  6
DOGSL_3
 62
     3
 10
4134.0375976562
 20
1759.7628173828
 40
116.0
 50
87.9051361084
 51
92.1278457642
  0
CIRCLE
  8
DOGSV_5
  6
DOGSL_1
 62
     7
 10
4033.5783691406
 20
1817.7628173828
 40
1.5999994278
  0
LINE
  8
DOGSV_5
  6
DOGSL_3
 62
     3
 10
4036.4870605469
 20
1816.0836181641
 11
4030.8620605469
 21
1819.3312988281
  0
ARC
  8
DOGSV_5
  6
DOGSL_3
 62
     3
 10
4134.0375976562
 20
1759.7628173828
 40
116.0000228882
 50
148.2066192627
 51
151.891418457
  0
CIRCLE
  8
DOGSV_5
  6
DOGSL_1
 62
     7
 10
4018.0373535156
 20
1759.7628173828
 40
1.5999994278
  0
ARC
  8
DOGSV_5
  6
DOGSL_3
 62
     3
 10
4134.0375976562
 20
1759.7628173828
 40
116.0000152588
 50
178.2066345215
 51
181.8914337158
  0
CIRCLE
  8
DOGSV_5
  6
DOGSL_1
 62
     7
 10
4192.0375976562
 20
1860.2218017578
 40
1.6000000238
  0
LINE
  8
DOGSV_5
  6
DOGSL_3
 62
     3
 10
4190.3583984375
 20
1857.3132324219
 11
4193.6059570312
 21
1862.9383544922
  0
ARC
  8
DOGSV_5
  6
DOGSL_3
 62
     3
 10
4134.0375976562
 20
1759.7628173828
 40
116.0000228882
 50
58.1085700989
 51
61.7933654785
  0
CIRCLE
  8
DOGSV_5
  6
DOGSL_1
 62
     7
 10
4234.4965820312
 20
1817.7628173828
 40
1.5999994278
  0
LINE
  8
DOGSV_5
  6
DOGSL_3
 62
     3
 10
4231.587890625
 20
1816.0836181641
 11
4237.212890625
 21
1819.3312988281
  0
ARC
  8
DOGSV_5
  6
DOGSL_3
 62
     3
 10
4134.0375976562
 20
1759.7628173828
 40
116.0000228882
 50
28.1085758209
 51
31.7933731079
  0
CIRCLE
  8
DOGSV_5
  6
DOGSL_1
 62
     7
 10
4250.0375976562
 20
1759.7628173828
 40
1.5999994278
  0
ARC
  8
DOGSV_5
  6
DOGSL_3
 62
     3
 10
4134.0375976562
 20
1759.7628173828
 40
116.0000152588
 50
358.108581543
 51
1.793373704
  0
CIRCLE
  8
DOGSV_5
  6
DOGSL_1
 62
     7
 10
4018.1005859375
 20
1719.7628173828
 40
1.6000000238
  0
CIRCLE
  8
DOGSV_5
  6
DOGSL_1
 62
     7
 10
4018.1005859375
 20
1679.7628173828
 40
1.6000000238
  0
LINE
  8
DOGSV_5
  6
DOGSL_3
 62
     3
 10
4018.1005859375
 20
1723.5506591797
 11
4018.1005859375
 21
1715.509765625
  0
LINE
  8
DOGSV_5
  6
DOGSL_3
 62
     3
 10
4021.5451660156
 20
1719.7628173828
 11
4014.5139160156
 21
1719.7628173828
  0
LINE
  8
DOGSV_5
  6
DOGSL_3
 62
     3
 10
4018.1005859375
 20
1683.5777587891
 11
4018.1005859375
 21
1675.6141357422
  0
LINE
  8
DOGSV_5
  6
DOGSL_3
 62
     3
 10
4021.6997070312
 20
1679.7628173828
 11
4014.6684570312
 21
1679.7628173828
  0
CIRCLE
  8
DOGSV_5
  6
DOGSL_1
 62
     7
 10
4249.9741210938
 20
1719.7628173828
 40
1.6000000238
  0
CIRCLE
  8
DOGSV_5
  6
DOGSL_1
 62
     7
 10
4249.9741210938
 20
1679.7628173828
 40
1.6000000238
  0
LINE
  8
DOGSV_5
  6
DOGSL_3
 62
     3
 10
4249.9741210938
 20
1723.5506591797
 11
4249.9741210938
 21
1715.509765625
  0
LINE
  8
DOGSV_5
  6
DOGSL_3
 62
     3
 10
4246.5297851562
 20
1719.7628173828
 11
4253.5610351562
 21
1719.7628173828
  0
LINE
  8
DOGSV_5
  6
DOGSL_3
 62
     3
 10
4249.9741210938
 20
1683.5777587891
 11
4249.9741210938
 21
1675.6141357422
  0
LINE
  8
DOGSV_5
  6
DOGSL_3
 62
     3
 10
4246.375
 20
1679.7628173828
 11
4253.40625
 21
1679.7628173828
  0
LINE
  8
DOGSV_5
  6
DOGSL_1
 62
     7
 10
3600.3474121094
 20
1871.7626953125
 11
3600.3474121094
 21
1880.7626953125
  0
ARC
  8
DOGSV_5
  6
DOGSL_1
 62
     7
 10
3599.3474121094
 20
1871.7626953125
 40
1.0
 50
270.0
 51
0.0
  0
LINE
  8
DOGSV_5
  6
DOGSL_1
 62
     7
 10
3600.3474121094
 20
1870.7626953125
 11
3600.3474121094
 21
1870.7628173828
  0
LINE
  8
DOGSV_5
  6
DOGSL_1
 62
     7
 10
3606.3474121094
 20
1880.7626953125
 11
3600.3474121094
 21
1880.7626953125
  0
LINE
  8
DOGSV_5
  6
DOGSL_1
 62
     7
 10
3606.3474121094
 20
1639.7628173828
 11
3606.3474121094
 21
1880.7626953125
  0
LINE
  8
DOGSV_5
  6
DOGSL_3
 62
     3
 10
3618.1552734375
 20
1875.7626953125
 11
3596.2973632812
 21
1875.7626953125
  0
TEXT
  8
DOGSV_6
 62
     3
 10
3653.5258789062
 20
600.117980957
 40
40.0
 50
0.0
  1
VIEW 6 (PARTS)
  0
LINE
  8
DOGSV_6
  6
DOGSL_1
 62
     1
 10
527.3713378906
 20
958.2628173828
 11
617.3713378906
 21
958.2628173828
  0
LINE
  8
DOGSV_6
  6
DOGSL_1
 62
     1
 10
617.3713378906
 20
958.2628173828
 11
617.3713378906
 21
1161.2628173828
  0
LINE
  8
DOGSV_6
  6
DOGSL_1
 62
     1
 10
507.371307373
 20
934.7628173828
 11
507.371307373
 21
1184.7628173828
  0
LINE
  8
DOGSV_6
  6
DOGSL_1
 62
     1
 10
527.3713378906
 20
958.2628173828
 11
527.3713378906
 21
1161.2628173828
  0
LINE
  8
DOGSV_6
  6
DOGSL_1
 62
     1
 10
507.371307373
 20
934.7628173828
 11
507.371307373
 21
1184.7628173828
  0
LINE
  8
DOGSV_6
  6
DOGSL_1
 62
     1
 10
497.371307373
 20
934.7628173828
 11
497.371307373
 21
1184.7628173828
  0
LINE
  8
DOGSV_6
  6
DOGSL_1
 62
     1
 10
617.3713378906
 20
1161.2628173828
 11
527.3713378906
 21
1161.2628173828
  0
LINE
  8
DOGSV_6
  6
DOGSL_1
 62
     1
 10
527.3713378906
 20
1169.7628173828
 11
507.371307373
 21
1169.7628173828
  0
LINE
  8
DOGSV_6
  6
DOGSL_1
 62
     1
 10
527.3713378906
 20
949.7628173828
 11
507.371307373
 21
949.7628173828
  0
LINE
  8
DOGSV_6
  6
DOGSL_1
 62
     1
 10
497.371307373
 20
934.7628173828
 11
507.371307373
 21
934.7628173828
  0
LINE
  8
DOGSV_6
  6
DOGSL_1
 62
     1
 10
527.3713378906
 20
1059.7628173828
 11
527.3713378906
 21
949.7628173828
  0
LINE
  8
DOGSV_6
  6
DOGSL_1
 62
     1
 10
527.3713378906
 20
949.7628173828
 11
527.3713378906
 21
1169.7628173828
  0
LINE
  8
DOGSV_6
  6
DOGSL_1
 62
     1
 10
507.371307373
 20
1184.7628173828
 11
497.371307373
 21
1184.7628173828
  0
LINE
  8
DOGSV_6
  6
DOGSL_3
 62
     3
 10
527.3713378906
 20
1059.7628173828
 11
538.6636962891
 21
1059.7628173828
  0
LINE
  8
DOGSV_6
  6
DOGSL_1
 62
     1
 10
2097.8627929688
 20
1590.9937744141
 11
2095.2658691406
 21
1590.8692626953
  0
LINE
  8
DOGSV_6
  6
DOGSL_1
 62
     1
 10
2098.6293945312
 20
1575.0122070312
 11
2096.0322265625
 21
1574.8876953125
  0
LINE
  8
DOGSV_6
  6
DOGSL_1
 62
     1
 10
2096.0322265625
 20
1574.8876953125
 11
2095.2658691406
 21
1590.8692626953
  0
LINE
  8
DOGSV_6
  6
DOGSL_1
 62
     1
 10
2097.5632324219
 20
1590.9794921875
 11
2098.3295898438
 21
1574.9978027344
  0
LINE
  8
DOGSV_6
  6
DOGSL_1
 62
     1
 10
2098.0300292969
 20
1574.9833984375
 11
2097.2634277344
 21
1590.9650878906
  0
LINE
  8
DOGSV_6
  6
DOGSL_1
 62
     1
 10
2100.5217285156
 20
1535.5576171875
 11
2097.9248046875
 21
1535.4329833984
  0
LINE
  8
DOGSV_6
  6
DOGSL_1
 62
     1
 10
2101.2883300781
 20
1519.5759277344
 11
2098.6911621094
 21
1519.4514160156
  0
LINE
  8
DOGSV_6
  6
DOGSL_1
 62
     1
 10
2098.6911621094
 20
1519.4514160156
 11
2097.9248046875
 21
1535.4329833984
  0
LINE
  8
DOGSV_6
  6
DOGSL_1
 62
     1
 10
2100.2221679688
 20
1535.5432128906
 11
2100.9885253906
 21
1519.5615234375
  0
LINE
  8
DOGSV_6
  6
DOGSL_1
 62
     1
 10
2100.6889648438
 20
1519.5471191406
 11
2099.9223632812
 21
1535.5288085938
  0
LINE
  8
DOGSV_6
  6
DOGSL_1
 62
     1
 10
2084.5400390625
 20
1556.8682861328
 11
2084.8034667969
 21
1551.3746337891
  0
LINE
  8
DOGSV_6
  6
DOGSL_1
 62
     1
 10
2086.8012695312
 20
1551.4704589844
 11
2086.5378417969
 21
1556.9641113281
  0
CIRCLE
  8
DOGSV_6
  6
DOGSL_1
 62
     1
 10
2106.646484375
 20
1555.1754150391
 40
1.0333071947
  0
LINE
  8
DOGSV_6
  6
DOGSL_1
 62
     1
 10
2103.9267578125
 20
1495.4766845703
 11
2100.4309082031
 21
1495.3089599609
  0
LINE
  8
DOGSV_6
  6
DOGSL_1
 62
     1
 10
2103.5651855469
 20
1503.0179443359
 11
2103.9267578125
 21
1495.4766845703
  0
LINE
  8
DOGSV_6
  6
DOGSL_1
 62
     1
 10
2101.2463378906
 20
1551.3623046875
 11
2101.1840820312
 21
1552.6608886719
  0
LINE
  8
DOGSV_6
  6
DOGSL_1
 62
     1
 10
2095.7143554688
 20
1551.8979492188
 11
2075.4821777344
 21
1550.9274902344
  0
LINE
  8
DOGSV_6
  6
DOGSL_1
 62
     1
 10
2101.2463378906
 20
1551.3623046875
 11
2071.5251464844
 21
1549.9367675781
  0
ARC
  8
DOGSV_6
  6
DOGSL_1
 62
     1
 10
2095.6186523438
 20
1553.8956298828
 40
2.0000157356
 50
272.7454833984
 51
314.1537780762
  0
ARC
  8
DOGSV_6
  6
DOGSL_1
 62
     1
 10
2075.3864746094
 20
1552.9251708984
 40
2.000043869
 50
197.2231140137
 51
272.7446899414
  0
LINE
  8
DOGSV_6
  6
DOGSL_1
 62
     1
 10
2075.9755859375
 20
1498.8913574219
 11
2076.361328125
 21
1490.8518066406
  0
ARC
  8
DOGSV_6
  6
DOGSL_1
 62
     1
 10
2077.9733886719
 20
1498.9871826172
 40
2.0000157356
 50
92.7454986572
 51
182.7453613281
  0
LINE
  8
DOGSV_6
  6
DOGSL_1
 62
     1
 10
2098.1098632812
 20
1501.9553222656
 11
2077.8774414062
 21
1500.9848632812
  0
ARC
  8
DOGSV_6
  6
DOGSL_1
 62
     1
 10
2098.2055664062
 20
1499.9576416016
 40
2.0000157356
 50
2.7454967499
 51
92.7456283569
  0
LINE
  8
DOGSV_6
  6
DOGSL_1
 62
     1
 10
2100.2033691406
 20
1500.0534667969
 11
2100.4309082031
 21
1495.3089599609
  0
LINE
  8
DOGSV_6
  6
DOGSL_1
 62
     1
 10
2101.1840820312
 20
1552.6608886719
 11
2097.01171875
 21
1552.4606933594
  0
LINE
  8
DOGSV_6
  6
DOGSL_1
 62
     1
 10
2073.4760742188
 20
1552.3330078125
 11
2071.4147949219
 21
1552.2341308594
  0
LINE
  8
DOGSV_6
  6
DOGSL_1
 62
     1
 10
2100.90625
 20
1558.4541015625
 11
2100.9685058594
 21
1557.1556396484
  0
LINE
  8
DOGSV_6
  6
DOGSL_1
 62
     1
 10
2095.4509277344
 20
1557.3916015625
 11
2075.2185058594
 21
1556.4211425781
  0
LINE
  8
DOGSV_6
  6
DOGSL_1
 62
     1
 10
2100.90625
 20
1558.4541015625
 11
2071.1848144531
 21
1557.0286865234
  0
ARC
  8
DOGSV_6
  6
DOGSL_1
 62
     1
 10
2095.5466308594
 20
1555.3939208984
 40
1.9999300241
 50
51.3382225037
 51
92.7465133667
  0
ARC
  8
DOGSV_6
  6
DOGSL_1
 62
     1
 10
2075.314453125
 20
1554.4234619141
 40
2.0000157356
 50
92.7454986572
 51
168.267074585
  0
LINE
  8
DOGSV_6
  6
DOGSL_1
 62
     1
 10
2100.9685058594
 20
1557.1556396484
 11
2096.7961425781
 21
1556.9555664062
  0
LINE
  8
DOGSV_6
  6
DOGSL_1
 62
     1
 10
2073.3562011719
 20
1554.830078125
 11
2071.2951660156
 21
1554.7313232422
  0
LINE
  8
DOGSV_6
  6
DOGSL_1
 62
     1
 10
2099.5695800781
 20
1514.3895263672
 11
2101.5324707031
 21
1514.4836425781
  0
LINE
  8
DOGSV_6
  6
DOGSL_1
 62
     1
 10
2099.5695800781
 20
1514.3895263672
 11
2100.0200195312
 21
1505.0003662109
  0
LINE
  8
DOGSV_6
  6
DOGSL_1
 62
     1
 10
2101.6450195312
 20
1512.1363525391
 11
2101.7145996094
 21
1510.6879882812
  0
LINE
  8
DOGSV_6
  6
DOGSL_1
 62
     1
 10
2101.7145996094
 20
1510.6879882812
 11
2103.34765625
 21
1510.7663574219
  0
LINE
  8
DOGSV_6
  6
DOGSL_1
 62
     1
 10
2100.0200195312
 20
1505.0003662109
 11
2103.6157226562
 21
1505.1728515625
  0
LINE
  8
DOGSV_6
  6
DOGSL_1
 62
     1
 10
2097.7075195312
 20
1507.2921142578
 11
2106.2976074219
 21
1507.7042236328
  0
LINE
  8
DOGSV_6
  6
DOGSL_1
 62
     1
 10
2103.34765625
 20
1510.7663574219
 11
2103.6157226562
 21
1505.1728515625
  0
LINE
  8
DOGSV_6
  6
DOGSL_1
 62
     1
 10
2099.1125488281
 20
1599.0648193359
 11
2098.8442382812
 21
1604.6584472656
  0
LINE
  8
DOGSV_6
  6
DOGSL_1
 62
     1
 10
2095.2482910156
 20
1604.4859619141
 11
2098.8442382812
 21
1604.6584472656
  0
LINE
  8
DOGSV_6
  6
DOGSL_1
 62
     1
 10
2095.6987304688
 20
1595.0968017578
 11
2095.2482910156
 21
1604.4859619141
  0
LINE
  8
DOGSV_6
  6
DOGSL_1
 62
     1
 10
2095.6987304688
 20
1595.0968017578
 11
2097.6613769531
 21
1595.1909179688
  0
LINE
  8
DOGSV_6
  6
DOGSL_1
 62
     1
 10
2097.4794921875
 20
1598.9865722656
 11
2099.1125488281
 21
1599.0648193359
  0
LINE
  8
DOGSV_6
  6
DOGSL_1
 62
     1
 10
2097.548828125
 20
1597.5382080078
 11
2097.4794921875
 21
1598.9865722656
  0
LINE
  8
DOGSV_6
  6
DOGSL_1
 62
     1
 10
2093.1657714844
 20
1601.9832763672
 11
2101.755859375
 21
1602.3952636719
  0
LINE
  8
DOGSV_6
  6
DOGSL_1
 62
     1
 10
2104.9353027344
 20
1594.6802978516
 11
2103.2004394531
 21
1596.6473388672
  0
LINE
  8
DOGSV_6
  6
DOGSL_1
 62
     1
 10
2104.8842773438
 20
1596.25
 11
2103.1496582031
 21
1598.2170410156
  0
LINE
  8
DOGSV_6
  6
DOGSL_1
 62
     1
 10
2103.6911621094
 20
1511.2333984375
 11
2104.689453125
 21
1511.28125
  0
LINE
  8
DOGSV_6
  6
DOGSL_1
 62
     1
 10
2104.6416015625
 20
1512.2801513672
 11
2104.689453125
 21
1511.28125
  0
LINE
  8
DOGSV_6
  6
DOGSL_1
 62
     1
 10
2104.6416015625
 20
1512.2801513672
 11
2101.6450195312
 21
1512.1363525391
  0
LINE
  8
DOGSV_6
  6
DOGSL_1
 62
     1
 10
2101.6450195312
 20
1512.1363525391
 11
2100.2077636719
 21
1542.1019287109
  0
LINE
  8
DOGSV_6
  6
DOGSL_1
 62
     1
 10
2103.2043457031
 20
1542.2457275391
 11
2100.2077636719
 21
1542.1019287109
  0
LINE
  8
DOGSV_6
  6
DOGSL_1
 62
     1
 10
2104.6416015625
 20
1512.2801513672
 11
2103.2043457031
 21
1542.2457275391
  0
LINE
  8
DOGSV_6
  6
DOGSL_1
 62
     1
 10
2103.6911621094
 20
1511.2333984375
 11
2104.1223144531
 21
1502.2437744141
  0
LINE
  8
DOGSV_6
  6
DOGSL_1
 62
     1
 10
2107.890625
 20
1502.4244384766
 11
2104.1223144531
 21
1502.2437744141
  0
LINE
  8
DOGSV_6
  6
DOGSL_1
 62
     1
 10
2107.890625
 20
1502.4244384766
 11
2105.265625
 21
1543.7906494141
  0
LINE
  8
DOGSV_6
  6
DOGSL_1
 62
     1
 10
2106.6340332031
 20
1543.8568115234
 11
2102.13671875
 21
1543.6411132812
  0
LINE
  8
DOGSV_6
  6
DOGSL_1
 62
     1
 10
2102.158203125
 20
1543.1966552734
 11
2103.1564941406
 21
1543.2445068359
  0
LINE
  8
DOGSV_6
  6
DOGSL_1
 62
     1
 10
2103.2043457031
 20
1542.2457275391
 11
2103.1564941406
 21
1543.2445068359
  0
LINE
  8
DOGSV_6
  6
DOGSL_1
 62
     1
 10
2107.3503417969
 20
1510.9375
 11
2109.0170898438
 21
1511.0433349609
  0
LINE
  8
DOGSV_6
  6
DOGSL_1
 62
     1
 10
2105.2670898438
 20
1543.7653808594
 11
2106.9338378906
 21
1543.8712158203
  0
LINE
  8
DOGSV_6
  6
DOGSL_1
 62
     1
 10
2107.1372070312
 20
1540.6663818359
 11
2105.3342285156
 21
1542.7110595703
  0
LINE
  8
DOGSV_6
  6
DOGSL_1
 62
     1
 10
2107.2404785156
 20
1539.0372314453
 11
2105.4375
 21
1541.0819091797
  0
LINE
  8
DOGSV_6
  6
DOGSL_1
 62
     1
 10
2107.3439941406
 20
1537.4080810547
 11
2105.5407714844
 21
1539.4527587891
  0
LINE
  8
DOGSV_6
  6
DOGSL_1
 62
     1
 10
2107.447265625
 20
1535.7790527344
 11
2105.6442871094
 21
1537.8237304688
  0
LINE
  8
DOGSV_6
  6
DOGSL_1
 62
     1
 10
2107.55078125
 20
1534.1499023438
 11
2105.7475585938
 21
1536.1945800781
  0
LINE
  8
DOGSV_6
  6
DOGSL_1
 62
     1
 10
2107.6540527344
 20
1532.5207519531
 11
2105.8510742188
 21
1534.5653076172
  0
LINE
  8
DOGSV_6
  6
DOGSL_1
 62
     1
 10
2107.7573242188
 20
1530.8916015625
 11
2105.9543457031
 21
1532.9361572266
  0
LINE
  8
DOGSV_6
  6
DOGSL_1
 62
     1
 10
2107.8608398438
 20
1529.2624511719
 11
2106.0576171875
 21
1531.3071289062
  0
LINE
  8
DOGSV_6
  6
DOGSL_1
 62
     1
 10
2107.9641113281
 20
1527.6333007812
 11
2106.1611328125
 21
1529.6779785156
  0
LINE
  8
DOGSV_6
  6
DOGSL_1
 62
     1
 10
2108.0676269531
 20
1526.0041503906
 11
2106.2644042969
 21
1528.048828125
  0
LINE
  8
DOGSV_6
  6
DOGSL_1
 62
     1
 10
2108.1711425781
 20
1524.3751220703
 11
2106.3679199219
 21
1526.4196777344
  0
LINE
  8
DOGSV_6
  6
DOGSL_1
 62
     1
 10
2108.2744140625
 20
1522.7458496094
 11
2106.4711914062
 21
1524.7905273438
  0
LINE
  8
DOGSV_6
  6
DOGSL_1
 62
     1
 10
2108.3776855469
 20
1521.1166992188
 11
2106.5747070312
 21
1523.1613769531
  0
LINE
  8
DOGSV_6
  6
DOGSL_1
 62
     1
 10
2108.4812011719
 20
1519.4875488281
 11
2106.6779785156
 21
1521.5322265625
  0
LINE
  8
DOGSV_6
  6
DOGSL_1
 62
     1
 10
2108.5844726562
 20
1517.8585205078
 11
2106.78125
 21
1519.9031982422
  0
LINE
  8
DOGSV_6
  6
DOGSL_1
 62
     1
 10
2108.6879882812
 20
1516.2293701172
 11
2106.884765625
 21
1518.2739257812
  0
LINE
  8
DOGSV_6
  6
DOGSL_1
 62
     1
 10
2108.7912597656
 20
1514.6002197266
 11
2106.98828125
 21
1516.6448974609
  0
LINE
  8
DOGSV_6
  6
DOGSL_1
 62
     1
 10
2108.8947753906
 20
1512.9710693359
 11
2107.0915527344
 21
1515.0157470703
  0
LINE
  8
DOGSV_6
  6
DOGSL_1
 62
     1
 10
2107.0336914062
 20
1542.2955322266
 11
2105.7126464844
 21
1543.7937011719
  0
LINE
  8
DOGSV_6
  6
DOGSL_1
 62
     1
 10
2108.998046875
 20
1511.3419189453
 11
2107.1950683594
 21
1513.3865966797
  0
LINE
  8
DOGSV_6
  6
DOGSL_1
 62
     1
 10
2107.9858398438
 20
1510.9779052734
 11
2107.2983398438
 21
1511.7574462891
  0
LINE
  8
DOGSV_6
  6
DOGSL_1
 62
     1
 10
2103.4462890625
 20
1545.7062988281
 11
2103.5419921875
 21
1543.7084960938
  0
LINE
  8
DOGSV_6
  6
DOGSL_1
 62
     1
 10
2106.8522949219
 20
1545.5692138672
 11
2106.9194335938
 21
1544.1708984375
  0
LINE
  8
DOGSV_6
  6
DOGSL_1
 62
     1
 10
2106.5383300781
 20
1545.8544921875
 11
2106.6340332031
 21
1543.8568115234
  0
LINE
  8
DOGSV_6
  6
DOGSL_1
 62
     1
 10
2106.8522949219
 20
1545.5692138672
 11
2106.5383300781
 21
1545.8544921875
  0
LINE
  8
DOGSV_6
  6
DOGSL_1
 62
     1
 10
2106.9194335938
 20
1544.1708984375
 11
2106.6340332031
 21
1543.8568115234
  0
LINE
  8
DOGSV_6
  6
DOGSL_1
 62
     1
 10
2106.5383300781
 20
1545.8544921875
 11
2102.041015625
 21
1545.6387939453
  0
LINE
  8
DOGSV_6
  6
DOGSL_1
 62
     1
 10
2108.3259277344
 20
1544.9390869141
 11
2101.2224121094
 21
1544.5983886719
  0
LINE
  8
DOGSV_6
  6
DOGSL_1
 62
     1
 10
2103.8132324219
 20
1508.6904296875
 11
2107.2526855469
 21
1512.4766845703
  0
LINE
  8
DOGSV_6
  6
DOGSL_1
 62
     1
 10
2104.6623535156
 20
1511.8560791016
 11
2107.1203613281
 21
1514.5617675781
  0
LINE
  8
DOGSV_6
  6
DOGSL_1
 62
     1
 10
2104.5607910156
 20
1513.9750976562
 11
2106.9870605469
 21
1516.6457519531
  0
LINE
  8
DOGSV_6
  6
DOGSL_1
 62
     1
 10
2104.4592285156
 20
1516.0939941406
 11
2106.8557128906
 21
1518.7320556641
  0
LINE
  8
DOGSV_6
  6
DOGSL_1
 62
     1
 10
2104.3576660156
 20
1518.2127685547
 11
2106.7233886719
 21
1520.8170166016
  0
LINE
  8
DOGSV_6
  6
DOGSL_1
 62
     1
 10
2104.255859375
 20
1520.3316650391
 11
2106.5910644531
 21
1522.9022216797
  0
LINE
  8
DOGSV_6
  6
DOGSL_1
 62
     1
 10
2104.154296875
 20
1522.4505615234
 11
2106.4587402344
 21
1524.9871826172
  0
LINE
  8
DOGSV_6
  6
DOGSL_1
 62
     1
 10
2104.052734375
 20
1524.5694580078
 11
2106.3264160156
 21
1527.0723876953
  0
LINE
  8
DOGSV_6
  6
DOGSL_1
 62
     1
 10
2103.9509277344
 20
1526.6883544922
 11
2106.1940917969
 21
1529.1574707031
  0
LINE
  8
DOGSV_6
  6
DOGSL_1
 62
     1
 10
2103.8493652344
 20
1528.8072509766
 11
2106.0617675781
 21
1531.2425537109
  0
LINE
  8
DOGSV_6
  6
DOGSL_1
 62
     1
 10
2103.7478027344
 20
1530.9260253906
 11
2105.9294433594
 21
1533.3276367188
  0
LINE
  8
DOGSV_6
  6
DOGSL_1
 62
     1
 10
2103.6462402344
 20
1533.044921875
 11
2105.7971191406
 21
1535.4128417969
  0
LINE
  8
DOGSV_6
  6
DOGSL_1
 62
     1
 10
2103.5444335938
 20
1535.1639404297
 11
2105.6647949219
 21
1537.4979248047
  0
LINE
  8
DOGSV_6
  6
DOGSL_1
 62
     1
 10
2103.4428710938
 20
1537.2828369141
 11
2105.5327148438
 21
1539.5830078125
  0
LINE
  8
DOGSV_6
  6
DOGSL_1
 62
     1
 10
2103.3413085938
 20
1539.4016113281
 11
2105.4001464844
 21
1541.6680908203
  0
LINE
  8
DOGSV_6
  6
DOGSL_1
 62
     1
 10
2103.2397460938
 20
1541.5205078125
 11
2105.2678222656
 21
1543.7532958984
  0
LINE
  8
DOGSV_6
  6
DOGSL_1
 62
     1
 10
2103.1608886719
 20
1545.3922119141
 11
2103.2280273438
 21
1543.9937744141
  0
LINE
  8
DOGSV_6
  6
DOGSL_1
 62
     1
 10
2103.1608886719
 20
1545.3922119141
 11
2103.4462890625
 21
1545.7062988281
  0
LINE
  8
DOGSV_6
  6
DOGSL_1
 62
     1
 10
2103.2280273438
 20
1543.9937744141
 11
2103.5419921875
 21
1543.7084960938
  0
LINE
  8
DOGSV_6
  6
DOGSL_1
 62
     1
 10
2101.5825195312
 20
1513.4409179688
 11
2102.9494628906
 21
1512.1989746094
  0
LINE
  8
DOGSV_6
  6
DOGSL_1
 62
     1
 10
2101.4470214844
 20
1516.2659912109
 11
2104.5871582031
 21
1513.4132080078
  0
LINE
  8
DOGSV_6
  6
DOGSL_1
 62
     1
 10
2101.3115234375
 20
1519.0911865234
 11
2104.4519042969
 21
1516.2384033203
  0
LINE
  8
DOGSV_6
  6
DOGSL_1
 62
     1
 10
2101.1760253906
 20
1521.9163818359
 11
2104.3161621094
 21
1519.0635986328
  0
LINE
  8
DOGSV_6
  6
DOGSL_1
 62
     1
 10
2101.0405273438
 20
1524.7415771484
 11
2104.1806640625
 21
1521.8887939453
  0
LINE
  8
DOGSV_6
  6
DOGSL_1
 62
     1
 10
2100.9050292969
 20
1527.5667724609
 11
2104.0451660156
 21
1524.7138671875
  0
LINE
  8
DOGSV_6
  6
DOGSL_1
 62
     1
 10
2100.76953125
 20
1530.3918457031
 11
2103.9096679688
 21
1527.5390625
  0
LINE
  8
DOGSV_6
  6
DOGSL_1
 62
     1
 10
2100.6340332031
 20
1533.2171630859
 11
2103.7741699219
 21
1530.3643798828
  0
LINE
  8
DOGSV_6
  6
DOGSL_1
 62
     1
 10
2100.4985351562
 20
1536.0423583984
 11
2103.638671875
 21
1533.189453125
  0
LINE
  8
DOGSV_6
  6
DOGSL_1
 62
     1
 10
2100.3630371094
 20
1538.8674316406
 11
2103.5031738281
 21
1536.0146484375
  0
LINE
  8
DOGSV_6
  6
DOGSL_1
 62
     1
 10
2100.2275390625
 20
1541.6926269531
 11
2103.3676757812
 21
1538.8397216797
  0
LINE
  8
DOGSV_6
  6
DOGSL_1
 62
     1
 10
2102.6235351562
 20
1542.2177734375
 11
2103.2321777344
 21
1541.6650390625
  0
LINE
  8
DOGSV_6
  6
DOGSL_1
 62
     1
 10
2106.1508789062
 20
1502.3409423828
 11
2107.7819824219
 21
1504.1362304688
  0
LINE
  8
DOGSV_6
  6
DOGSL_1
 62
     1
 10
2104.1179199219
 20
1502.3338623047
 11
2107.6496582031
 21
1506.2213134766
  0
LINE
  8
DOGSV_6
  6
DOGSL_1
 62
     1
 10
2104.0163574219
 20
1504.4527587891
 11
2107.5173339844
 21
1508.3063964844
  0
LINE
  8
DOGSV_6
  6
DOGSL_1
 62
     1
 10
2103.9147949219
 20
1506.5716552734
 11
2107.3850097656
 21
1510.3916015625
  0
LINE
  8
DOGSV_6
  6
DOGSL_1
 62
     1
 10
2101.7268066406
 20
1552.1862792969
 11
2102.158203125
 21
1543.1966552734
  0
LINE
  8
DOGSV_6
  6
DOGSL_1
 62
     1
 10
2104.7236328125
 20
1552.330078125
 11
2101.7268066406
 21
1552.1862792969
  0
LINE
  8
DOGSV_6
  6
DOGSL_1
 62
     1
 10
2105.1389160156
 20
1545.7873535156
 11
2104.7236328125
 21
1552.330078125
  0
LINE
  8
DOGSV_6
  6
DOGSL_1
 62
     1
 10
2102.9682617188
 20
1545.6832275391
 11
2105.0034179688
 21
1547.9234619141
  0
LINE
  8
DOGSV_6
  6
DOGSL_1
 62
     1
 10
2101.9838867188
 20
1546.8304443359
 11
2104.87109375
 21
1550.0085449219
  0
LINE
  8
DOGSV_6
  6
DOGSL_1
 62
     1
 10
2101.8820800781
 20
1548.9493408203
 11
2104.7385253906
 21
1552.0936279297
  0
LINE
  8
DOGSV_6
  6
DOGSL_1
 62
     1
 10
2101.7805175781
 20
1551.0681152344
 11
2102.8449707031
 21
1552.2398681641
  0
LINE
  8
DOGSV_6
  6
DOGSL_1
 62
     1
 10
2101.4633789062
 20
1557.6799316406
 11
2101.0322265625
 21
1566.6696777344
  0
LINE
  8
DOGSV_6
  6
DOGSL_1
 62
     1
 10
2104.4599609375
 20
1557.8237304688
 11
2101.4633789062
 21
1557.6799316406
  0
LINE
  8
DOGSV_6
  6
DOGSL_1
 62
     1
 10
2101.0322265625
 20
1566.6696777344
 11
2102.0307617188
 21
1566.7175292969
  0
LINE
  8
DOGSV_6
  6
DOGSL_1
 62
     1
 10
2101.9826660156
 20
1567.7164306641
 11
2102.0307617188
 21
1566.7175292969
  0
LINE
  8
DOGSV_6
  6
DOGSL_1
 62
     1
 10
2105.8649902344
 20
1566.1556396484
 11
2105.5510253906
 21
1566.4409179688
  0
LINE
  8
DOGSV_6
  6
DOGSL_1
 62
     1
 10
2104.181640625
 20
1566.4011230469
 11
2105.8508300781
 21
1566.4552001953
  0
LINE
  8
DOGSV_6
  6
DOGSL_1
 62
     1
 10
2104.5310058594
 20
1566.4124755859
 11
2104.16796875
 21
1566.8240966797
  0
LINE
  8
DOGSV_6
  6
DOGSL_1
 62
     1
 10
2107.3386230469
 20
1565.525390625
 11
2101.3059082031
 21
1565.2360839844
  0
LINE
  8
DOGSV_6
  6
DOGSL_1
 62
     1
 10
2105.9321289062
 20
1564.7572021484
 11
2105.8649902344
 21
1566.1556396484
  0
LINE
  8
DOGSV_6
  6
DOGSL_1
 62
     1
 10
2105.6467285156
 20
1564.4431152344
 11
2105.5510253906
 21
1566.4409179688
  0
LINE
  8
DOGSV_6
  6
DOGSL_1
 62
     1
 10
2105.9321289062
 20
1564.7572021484
 11
2105.6467285156
 21
1564.4431152344
  0
LINE
  8
DOGSV_6
  6
DOGSL_1
 62
     1
 10
2105.6467285156
 20
1564.4431152344
 11
2101.1494140625
 21
1564.2274169922
  0
LINE
  8
DOGSV_6
  6
DOGSL_1
 62
     1
 10
2102.5546875
 20
1564.2947998047
 11
2102.458984375
 21
1566.2926025391
  0
LINE
  8
DOGSV_6
  6
DOGSL_1
 62
     1
 10
2102.2407226562
 20
1564.580078125
 11
2102.1735839844
 21
1565.978515625
  0
LINE
  8
DOGSV_6
  6
DOGSL_1
 62
     1
 10
2102.2407226562
 20
1564.580078125
 11
2102.5546875
 21
1564.2947998047
  0
LINE
  8
DOGSV_6
  6
DOGSL_1
 62
     1
 10
2102.1735839844
 20
1565.978515625
 11
2102.458984375
 21
1566.2926025391
  0
LINE
  8
DOGSV_6
  6
DOGSL_1
 62
     1
 10
2105.5461425781
 20
1566.4406738281
 11
2101.0534667969
 21
1566.2252197266
  0
LINE
  8
DOGSV_6
  6
DOGSL_1
 62
     1
 10
2101.255859375
 20
1562.0079345703
 11
2103.3688964844
 21
1564.3338623047
  0
LINE
  8
DOGSV_6
  6
DOGSL_1
 62
     1
 10
2101.154296875
 20
1564.1267089844
 11
2101.25
 21
1564.2322998047
  0
LINE
  8
DOGSV_6
  6
DOGSL_1
 62
     1
 10
2101.357421875
 20
1559.8890380859
 11
2104.2883300781
 21
1563.1151123047
  0
LINE
  8
DOGSV_6
  6
DOGSL_1
 62
     1
 10
2101.4592285156
 20
1557.7700195312
 11
2104.3581542969
 21
1560.9613037109
  0
LINE
  8
DOGSV_6
  6
DOGSL_1
 62
     1
 10
2103.4921875
 20
1557.7772216797
 11
2104.4279785156
 21
1558.8074951172
  0
LINE
  8
DOGSV_6
  6
DOGSL_1
 62
     1
 10
2104.4599609375
 20
1557.8237304688
 11
2104.2475585938
 21
1564.3760986328
  0
LINE
  8
DOGSV_6
  6
DOGSL_1
 62
     1
 10
2101.9826660156
 20
1567.7164306641
 11
2098.9860839844
 21
1567.5726318359
  0
LINE
  8
DOGSV_6
  6
DOGSL_1
 62
     1
 10
2100.7517089844
 20
1593.3809814453
 11
2097.6115722656
 21
1596.2337646484
  0
LINE
  8
DOGSV_6
  6
DOGSL_1
 62
     1
 10
2100.8872070312
 20
1590.5556640625
 11
2097.7470703125
 21
1593.4085693359
  0
LINE
  8
DOGSV_6
  6
DOGSL_1
 62
     1
 10
2101.0227050781
 20
1587.7305908203
 11
2097.8825683594
 21
1590.5833740234
  0
LINE
  8
DOGSV_6
  6
DOGSL_1
 62
     1
 10
2101.158203125
 20
1584.9053955078
 11
2098.0180664062
 21
1587.7583007812
  0
LINE
  8
DOGSV_6
  6
DOGSL_1
 62
     1
 10
2101.2937011719
 20
1582.0802001953
 11
2098.1535644531
 21
1584.9329833984
  0
LINE
  8
DOGSV_6
  6
DOGSL_1
 62
     1
 10
2101.4291992188
 20
1579.2550048828
 11
2098.2890625
 21
1582.1077880859
  0
LINE
  8
DOGSV_6
  6
DOGSL_1
 62
     1
 10
2101.5646972656
 20
1576.4298095703
 11
2098.4245605469
 21
1579.2827148438
  0
LINE
  8
DOGSV_6
  6
DOGSL_1
 62
     1
 10
2101.7001953125
 20
1573.6047363281
 11
2098.5600585938
 21
1576.4575195312
  0
LINE
  8
DOGSV_6
  6
DOGSL_1
 62
     1
 10
2101.8356933594
 20
1570.7794189453
 11
2098.6955566406
 21
1573.6323242188
  0
LINE
  8
DOGSV_6
  6
DOGSL_1
 62
     1
 10
2101.9714355469
 20
1567.9543457031
 11
2098.8310546875
 21
1570.8071289062
  0
LINE
  8
DOGSV_6
  6
DOGSL_1
 62
     1
 10
2099.3955078125
 20
1567.5922851562
 11
2098.9665527344
 21
1567.9820556641
  0
LINE
  8
DOGSV_6
  6
DOGSL_1
 62
     1
 10
2104.9860839844
 20
1593.1105957031
 11
2103.2514648438
 21
1595.0776367188
  0
LINE
  8
DOGSV_6
  6
DOGSL_1
 62
     1
 10
2105.037109375
 20
1591.541015625
 11
2103.3024902344
 21
1593.5080566406
  0
LINE
  8
DOGSV_6
  6
DOGSL_1
 62
     1
 10
2105.087890625
 20
1589.9713134766
 11
2103.3532714844
 21
1591.9383544922
  0
LINE
  8
DOGSV_6
  6
DOGSL_1
 62
     1
 10
2105.1389160156
 20
1588.4017333984
 11
2103.404296875
 21
1590.3687744141
  0
LINE
  8
DOGSV_6
  6
DOGSL_1
 62
     1
 10
2105.1896972656
 20
1586.83203125
 11
2103.455078125
 21
1588.7990722656
  0
LINE
  8
DOGSV_6
  6
DOGSL_1
 62
     1
 10
2105.2407226562
 20
1585.2624511719
 11
2103.5061035156
 21
1587.2294921875
  0
LINE
  8
DOGSV_6
  6
DOGSL_1
 62
     1
 10
2105.2917480469
 20
1583.6927490234
 11
2103.5568847656
 21
1585.6597900391
  0
LINE
  8
DOGSV_6
  6
DOGSL_1
 62
     1
 10
2105.3425292969
 20
1582.123046875
 11
2103.6079101562
 21
1584.0900878906
  0
LINE
  8
DOGSV_6
  6
DOGSL_1
 62
     1
 10
2105.3935546875
 20
1580.5533447266
 11
2103.6586914062
 21
1582.5205078125
  0
LINE
  8
DOGSV_6
  6
DOGSL_1
 62
     1
 10
2105.4443359375
 20
1578.9838867188
 11
2103.7097167969
 21
1580.9509277344
  0
LINE
  8
DOGSV_6
  6
DOGSL_1
 62
     1
 10
2105.4953613281
 20
1577.4141845703
 11
2103.7604980469
 21
1579.3812255859
  0
LINE
  8
DOGSV_6
  6
DOGSL_1
 62
     1
 10
2105.5463867188
 20
1575.8444824219
 11
2103.8115234375
 21
1577.8116455078
  0
LINE
  8
DOGSV_6
  6
DOGSL_1
 62
     1
 10
2105.5971679688
 20
1574.2749023438
 11
2103.8625488281
 21
1576.2419433594
  0
LINE
  8
DOGSV_6
  6
DOGSL_1
 62
     1
 10
2105.6481933594
 20
1572.7052001953
 11
2103.9133300781
 21
1574.6722412109
  0
LINE
  8
DOGSV_6
  6
DOGSL_1
 62
     1
 10
2105.6989746094
 20
1571.1356201172
 11
2103.9643554688
 21
1573.1026611328
  0
LINE
  8
DOGSV_6
  6
DOGSL_1
 62
     1
 10
2105.75
 20
1569.5660400391
 11
2104.0151367188
 21
1571.5329589844
  0
LINE
  8
DOGSV_6
  6
DOGSL_1
 62
     1
 10
2105.80078125
 20
1567.9963378906
 11
2104.0661621094
 21
1569.9633789062
  0
LINE
  8
DOGSV_6
  6
DOGSL_1
 62
     1
 10
2105.8271484375
 20
1566.4544677734
 11
2104.1171875
 21
1568.3936767578
  0
LINE
  8
DOGSV_6
  6
DOGSL_1
 62
     1
 10
2103.1518554688
 20
1566.3258056641
 11
2104.1486816406
 21
1567.4228515625
  0
LINE
  8
DOGSV_6
  6
DOGSL_1
 62
     1
 10
2102.0034179688
 20
1567.2923583984
 11
2104.0786132812
 21
1569.5766601562
  0
LINE
  8
DOGSV_6
  6
DOGSL_1
 62
     1
 10
2101.9018554688
 20
1569.4112548828
 11
2104.0087890625
 21
1571.73046875
  0
LINE
  8
DOGSV_6
  6
DOGSL_1
 62
     1
 10
2101.8002929688
 20
1571.5301513672
 11
2103.9389648438
 21
1573.8843994141
  0
LINE
  8
DOGSV_6
  6
DOGSL_1
 62
     1
 10
2101.6987304688
 20
1573.6490478516
 11
2103.869140625
 21
1576.0382080078
  0
LINE
  8
DOGSV_6
  6
DOGSL_1
 62
     1
 10
2101.5969238281
 20
1575.7679443359
 11
2103.7993164062
 21
1578.1920166016
  0
LINE
  8
DOGSV_6
  6
DOGSL_1
 62
     1
 10
2101.4953613281
 20
1577.8868408203
 11
2103.7292480469
 21
1580.3458251953
  0
LINE
  8
DOGSV_6
  6
DOGSL_1
 62
     1
 10
2101.3937988281
 20
1580.0057373047
 11
2103.6594238281
 21
1582.4997558594
  0
LINE
  8
DOGSV_6
  6
DOGSL_1
 62
     1
 10
2101.2922363281
 20
1582.1246337891
 11
2103.5895996094
 21
1584.6535644531
  0
LINE
  8
DOGSV_6
  6
DOGSL_1
 62
     1
 10
2101.1904296875
 20
1584.2435302734
 11
2103.5197753906
 21
1586.8073730469
  0
LINE
  8
DOGSV_6
  6
DOGSL_1
 62
     1
 10
2101.0888671875
 20
1586.3623046875
 11
2103.4499511719
 21
1588.9613037109
  0
LINE
  8
DOGSV_6
  6
DOGSL_1
 62
     1
 10
2100.9873046875
 20
1588.4812011719
 11
2103.3798828125
 21
1591.1151123047
  0
LINE
  8
DOGSV_6
  6
DOGSL_1
 62
     1
 10
2100.8857421875
 20
1590.6000976562
 11
2103.3100585938
 21
1593.2690429688
  0
LINE
  8
DOGSV_6
  6
DOGSL_1
 62
     1
 10
2100.7839355469
 20
1592.7191162109
 11
2103.240234375
 21
1595.4228515625
  0
LINE
  8
DOGSV_6
  6
DOGSL_1
 62
     1
 10
2099.4992675781
 20
1598.6329345703
 11
2100.4975585938
 21
1598.6807861328
  0
LINE
  8
DOGSV_6
  6
DOGSL_1
 62
     1
 10
2100.5454101562
 20
1597.6818847656
 11
2100.4975585938
 21
1598.6807861328
  0
LINE
  8
DOGSV_6
  6
DOGSL_1
 62
     1
 10
2100.5454101562
 20
1597.6818847656
 11
2097.548828125
 21
1597.5382080078
  0
LINE
  8
DOGSV_6
  6
DOGSL_1
 62
     1
 10
2097.548828125
 20
1597.5382080078
 11
2098.9860839844
 21
1567.5726318359
  0
LINE
  8
DOGSV_6
  6
DOGSL_1
 62
     1
 10
2103.115234375
 20
1599.2777099609
 11
2104.7844238281
 21
1599.3319091797
  0
LINE
  8
DOGSV_6
  6
DOGSL_1
 62
     1
 10
2104.8334960938
 20
1597.8195800781
 11
2103.5354003906
 21
1599.2913818359
  0
LINE
  8
DOGSV_6
  6
DOGSL_1
 62
     1
 10
2100.5808105469
 20
1596.9567871094
 11
2103.1005859375
 21
1599.73046875
  0
LINE
  8
DOGSV_6
  6
DOGSL_1
 62
     1
 10
2100.1032714844
 20
1598.6618652344
 11
2103.0307617188
 21
1601.8842773438
  0
LINE
  8
DOGSV_6
  6
DOGSL_1
 62
     1
 10
2099.4265136719
 20
1600.1477050781
 11
2102.9606933594
 21
1604.0382080078
  0
LINE
  8
DOGSV_6
  6
DOGSL_1
 62
     1
 10
2100.6162109375
 20
1596.2061767578
 11
2099.0695800781
 21
1597.6112060547
  0
LINE
  8
DOGSV_6
  6
DOGSL_1
 62
     1
 10
2100.5454101562
 20
1597.6818847656
 11
2101.9826660156
 21
1567.7164306641
  0
LINE
  8
DOGSV_6
  6
DOGSL_1
 62
     1
 10
2100.6823730469
 20
1594.837890625
 11
2103.1704101562
 21
1597.5766601562
  0
LINE
  8
DOGSV_6
  6
DOGSL_1
 62
     1
 10
2102.6293945312
 20
1582.8063964844
 11
2109.8540039062
 21
1583.0407714844
  0
LINE
  8
DOGSV_6
  6
DOGSL_1
 62
     1
 10
2106.3088378906
 20
1527.3514404297
 11
2114.5932617188
 21
1527.8773193359
  0
LINE
  8
DOGSV_6
  6
DOGSL_1
 62
     1
 10
2076.361328125
 20
1490.8518066406
 11
2074.3635253906
 21
1490.7559814453
  0
LINE
  8
DOGSV_6
  6
DOGSL_1
 62
     1
 10
2105.3176269531
 20
1582.8935546875
 11
2104.7844238281
 21
1599.3319091797
  0
LINE
  8
DOGSV_6
  6
DOGSL_1
 62
     1
 10
2105.3176269531
 20
1582.8935546875
 11
2107.9753417969
 21
1527.4572753906
  0
LINE
  8
DOGSV_6
  6
DOGSL_1
 62
     1
 10
2107.9753417969
 20
1527.4572753906
 11
2109.0170898438
 21
1511.0433349609
  0
LINE
  8
DOGSV_6
  6
DOGSL_1
 62
     1
 10
2103.5651855469
 20
1503.0179443359
 11
2073.84375
 21
1501.5924072266
  0
LINE
  8
DOGSV_6
  6
DOGSL_1
 62
     1
 10
2074.3635253906
 20
1490.7559814453
 11
2068.3464355469
 21
1616.2093505859
  0
LINE
  8
DOGSV_6
  6
DOGSL_1
 62
     1
 10
2103.9230957031
 20
1527.2629394531
 11
2095.2392578125
 21
1526.8464355469
  0
LINE
  8
DOGSV_6
  6
DOGSL_1
 62
     1
 10
2101.2641601562
 20
1582.69921875
 11
2092.1965332031
 21
1582.2642822266
  0
LINE
  8
DOGSV_6
  6
DOGSL_1
 62
     1
 10
2133.7580566406
 20
1538.0045166016
 11
2120.5732421875
 21
1537.3721923828
  0
LINE
  8
DOGSV_6
  6
DOGSL_1
 62
     1
 10
2131.9326171875
 20
1576.0607910156
 11
2118.7478027344
 21
1575.4284667969
  0
LINE
  8
DOGSV_6
  6
DOGSL_1
 62
     1
 10
2135.5832519531
 20
1499.9483642578
 11
2122.3984375
 21
1499.3159179688
  0
LINE
  8
DOGSV_6
  6
DOGSL_1
 62
     1
 10
2128.1115722656
 20
1503.3942871094
 11
2130.0783691406
 21
1462.3914794922
  0
LINE
  8
DOGSV_6
  6
DOGSL_1
 62
     1
 10
2128.0803222656
 20
1462.2956542969
 11
2126.1137695312
 21
1503.2984619141
  0
LINE
  8
DOGSV_6
  6
DOGSL_1
 62
     1
 10
2133.1625976562
 20
1493.4749755859
 11
2129.2951660156
 21
1493.2894287109
  0
LINE
  8
DOGSV_6
  6
DOGSL_1
 62
     1
 10
2165.9011230469
 20
1486.7355957031
 11
2265.2868652344
 21
1491.5025634766
  0
LINE
  8
DOGSV_6
  6
DOGSL_1
 62
     1
 10
2166.6677246094
 20
1470.7540283203
 11
2165.9011230469
 21
1486.7355957031
  0
LINE
  8
DOGSV_6
  6
DOGSL_1
 62
     1
 10
2131.2526855469
 20
1488.4776611328
 11
2122.2651367188
 21
1488.0466308594
  0
LINE
  8
DOGSV_6
  6
DOGSL_1
 62
     1
 10
2126.7780761719
 20
1489.4543457031
 11
2128.7756347656
 21
1489.5502929688
  0
LINE
  8
DOGSV_6
  6
DOGSL_1
 62
     1
 10
2126.8920898438
 20
1487.0771484375
 11
2128.8896484375
 21
1487.1729736328
  0
LINE
  8
DOGSV_6
  6
DOGSL_1
 62
     1
 10
2125.6206054688
 20
1492.7127685547
 11
2125.9797363281
 21
1485.2213134766
  0
ARC
  8
DOGSV_6
  6
DOGSL_1
 62
     1
 10
2122.9833984375
 20
1485.0776367188
 40
3.00000453
 50
272.7459106445
 51
2.7458965778
  0
LINE
  8
DOGSV_6
  6
DOGSL_1
 62
     1
 10
2123.126953125
 20
1482.0810546875
 11
2111.1408691406
 21
1481.5061035156
  0
LINE
  8
DOGSV_6
  6
DOGSL_1
 62
     1
 10
2111.1408691406
 20
1481.5061035156
 11
2108.2878417969
 21
1478.3658447266
  0
LINE
  8
DOGSV_6
  6
DOGSL_1
 62
     1
 10
2123.1748046875
 20
1481.0821533203
 11
2113.1862792969
 21
1480.6031494141
  0
ARC
  8
DOGSV_6
  6
DOGSL_1
 62
     1
 10
2123.3186035156
 20
1478.0856933594
 40
3.00000453
 50
2.7458877563
 51
92.7458877563
  0
LINE
  8
DOGSV_6
  6
DOGSL_1
 62
     1
 10
2113.1862792969
 20
1480.6031494141
 11
2113.1384277344
 21
1481.6019287109
  0
ARC
  8
DOGSV_6
  6
DOGSL_1
 62
     1
 10
2126.7399902344
 20
1488.2612304688
 40
2.9369072914
 50
110.6902313232
 51
254.7997131348
  0
LINE
  8
DOGSV_6
  6
DOGSL_1
 62
     1
 10
2126.6193847656
 20
1492.7606201172
 11
2125.6206054688
 21
1492.7127685547
  0
LINE
  8
DOGSV_6
  6
DOGSL_1
 62
     1
 10
2136.0690917969
 20
1477.2955322266
 11
2129.7885742188
 21
1483.0012207031
  0
LINE
  8
DOGSV_6
  6
DOGSL_1
 62
     1
 10
2146.7172851562
 20
1468.1953125
 11
2284.1594238281
 21
1474.7874755859
  0
LINE
  8
DOGSV_6
  6
DOGSL_1
 62
     1
 10
2146.7172851562
 20
1468.1953125
 11
2146.640625
 21
1469.7934570312
  0
LINE
  8
DOGSV_6
  6
DOGSL_1
 62
     1
 10
2136.0690917969
 20
1477.2955322266
 11
2293.8876953125
 21
1484.8651123047
  0
LINE
  8
DOGSV_6
  6
DOGSL_1
 62
     1
 10
2146.640625
 20
1469.7934570312
 11
2284.0827636719
 21
1476.3856201172
  0
LINE
  8
DOGSV_6
  6
DOGSL_1
 62
     1
 10
2149.5520019531
 20
1467.5383300781
 11
2149.9262695312
 21
1459.7392578125
  0
LINE
  8
DOGSV_6
  6
DOGSL_1
 62
     1
 10
2152.5866699219
 20
1462.2987060547
 11
2147.0329589844
 21
1462.0323486328
  0
LINE
  8
DOGSV_6
  6
DOGSL_1
 62
     1
 10
2151.6005859375
 20
1460.5194091797
 11
2148.1845703125
 21
1460.3555908203
  0
LINE
  8
DOGSV_6
  6
DOGSL_1
 62
     1
 10
2152.564453125
 20
1462.7581787109
 11
2152.6181640625
 21
1461.6394042969
  0
LINE
  8
DOGSV_6
  6
DOGSL_1
 62
     1
 10
2147.0109863281
 20
1462.4918212891
 11
2147.0646972656
 21
1461.373046875
  0
ARC
  8
DOGSV_6
  6
DOGSL_1
 62
     1
 10
2148.1333007812
 20
1461.4243164062
 40
1.069989562
 50
182.7469787598
 51
272.7469787598
  0
ARC
  8
DOGSV_6
  6
DOGSL_1
 62
     1
 10
2151.5495605469
 20
1461.5881347656
 40
1.069989562
 50
272.7470092773
 51
2.7469923496
  0
LINE
  8
DOGSV_6
  6
DOGSL_1
 62
     1
 10
2108.2878417969
 20
1478.3658447266
 11
2108.9587402344
 21
1464.3819580078
  0
LINE
  8
DOGSV_6
  6
DOGSL_1
 62
     1
 10
2112.0988769531
 20
1461.5291748047
 11
2108.9587402344
 21
1464.3819580078
  0
LINE
  8
DOGSV_6
  6
DOGSL_1
 62
     1
 10
2128.0805664062
 20
1462.2956542969
 11
2112.0988769531
 21
1461.5291748047
  0
LINE
  8
DOGSV_6
  6
DOGSL_1
 62
     1
 10
2124.0373535156
 20
1463.1027832031
 11
2114.048828125
 21
1462.6237792969
  0
CIRCLE
  8
DOGSV_6
  6
DOGSL_1
 62
     1
 10
2117.6130371094
 20
1471.8050537109
 40
2.249984026
  0
ARC
  8
DOGSV_6
  6
DOGSL_1
 62
     1
 10
2117.6130371094
 20
1471.8050537109
 40
6.0000362396
 50
308.926940918
 51
278.2569274902
  0
LINE
  8
DOGSV_6
  6
DOGSL_1
 62
     1
 10
2126.3151855469
 20
1478.2293701172
 11
2126.8901367188
 21
1466.2431640625
  0
ARC
  8
DOGSV_6
  6
DOGSL_1
 62
     1
 10
2123.8935546875
 20
1466.0993652344
 40
3.00000453
 50
272.7459106445
 51
2.7458965778
  0
LINE
  8
DOGSV_6
  6
DOGSL_1
 62
     1
 10
2117.8684082031
 20
1460.6334228516
 11
2123.4221191406
 21
1460.8997802734
  0
LINE
  8
DOGSV_6
  6
DOGSL_1
 62
     1
 10
2119.0202636719
 20
1458.9566650391
 11
2122.4362792969
 21
1459.1206054688
  0
LINE
  8
DOGSV_6
  6
DOGSL_1
 62
     1
 10
2117.8464355469
 20
1461.0930175781
 11
2117.9001464844
 21
1459.9742431641
  0
LINE
  8
DOGSV_6
  6
DOGSL_1
 62
     1
 10
2123.4001464844
 20
1461.359375
 11
2123.4536132812
 21
1460.2406005859
  0
ARC
  8
DOGSV_6
  6
DOGSL_1
 62
     1
 10
2122.3850097656
 20
1460.1893310547
 40
1.069989562
 50
272.7470092773
 51
2.7469923496
  0
ARC
  8
DOGSV_6
  6
DOGSL_1
 62
     1
 10
2118.9689941406
 20
1460.0255126953
 40
1.069989562
 50
182.7469787598
 51
272.7469787598
  0
LINE
  8
DOGSV_6
  6
DOGSL_1
 62
     1
 10
2119.322265625
 20
1467.060546875
 11
2119.3642578125
 21
1466.1824951172
  0
LINE
  8
DOGSV_6
  6
DOGSL_1
 62
     1
 10
2121.3598632812
 20
1467.158203125
 11
2121.4020996094
 21
1466.2802734375
  0
LINE
  8
DOGSV_6
  6
DOGSL_1
 62
     1
 10
2121.7680664062
 20
1466.7874755859
 11
2121.7915039062
 21
1466.2989501953
  0
LINE
  8
DOGSV_6
  6
DOGSL_1
 62
     1
 10
2118.9514160156
 20
1466.65234375
 11
2118.9748535156
 21
1466.1638183594
  0
LINE
  8
DOGSV_6
  6
DOGSL_1
 62
     1
 10
2119.322265625
 20
1467.060546875
 11
2121.3598632812
 21
1467.158203125
  0
LINE
  8
DOGSV_6
  6
DOGSL_1
 62
     1
 10
2118.9514160156
 20
1466.65234375
 11
2121.7680664062
 21
1466.7874755859
  0
LINE
  8
DOGSV_6
  6
DOGSL_1
 62
     1
 10
2119.322265625
 20
1467.060546875
 11
2118.9514160156
 21
1466.65234375
  0
LINE
  8
DOGSV_6
  6
DOGSL_1
 62
     1
 10
2121.3598632812
 20
1467.158203125
 11
2121.7680664062
 21
1466.7874755859
  0
LINE
  8
DOGSV_6
  6
DOGSL_1
 62
     1
 10
2123.8071289062
 20
1463.7275390625
 11
2117.2145996094
 21
1463.4113769531
  0
LINE
  8
DOGSV_6
  6
DOGSL_1
 62
     1
 10
2122.2810058594
 20
1466.3223876953
 11
2120.3833007812
 21
1466.2314453125
  0
LINE
  8
DOGSV_6
  6
DOGSL_1
 62
     1
 10
2122.2810058594
 20
1466.3223876953
 11
2122.5798339844
 21
1464.1258544922
  0
ARC
  8
DOGSV_6
  6
DOGSL_1
 62
     1
 10
2123.0751953125
 20
1464.1929931641
 40
0.5000143647
 50
187.7140808105
 51
272.7465820312
  0
LINE
  8
DOGSV_6
  6
DOGSL_1
 62
     1
 10
2118.4853515625
 20
1466.1403808594
 11
2120.3833007812
 21
1466.2314453125
  0
LINE
  8
DOGSV_6
  6
DOGSL_1
 62
     1
 10
2118.4853515625
 20
1466.1403808594
 11
2118.3981933594
 21
1463.9252929688
  0
ARC
  8
DOGSV_6
  6
DOGSL_1
 62
     1
 10
2117.8986816406
 20
1463.9447021484
 40
0.5000164509
 50
272.743927002
 51
357.7764282227
  0
LINE
  8
DOGSV_6
  6
DOGSL_1
 62
     1
 10
2117.2145996094
 20
1463.4113769531
 11
2117.2451171875
 21
1462.7770996094
  0
LINE
  8
DOGSV_6
  6
DOGSL_1
 62
     1
 10
2123.8071289062
 20
1463.7275390625
 11
2123.8374023438
 21
1463.0932617188
  0
LINE
  8
DOGSV_6
  6
DOGSL_1
 62
     1
 10
2120.302734375
 20
1467.9067382812
 11
2120.8032226562
 21
1457.4748535156
  0
LINE
  8
DOGSV_6
  6
DOGSL_1
 62
     1
 10
2115.5949707031
 20
1461.6967773438
 11
2115.62890625
 21
1460.9865722656
  0
LINE
  8
DOGSV_6
  6
DOGSL_1
 62
     1
 10
2114.048828125
 20
1462.6237792969
 11
2114.0966796875
 21
1461.6248779297
  0
ARC
  8
DOGSV_6
  6
DOGSL_1
 62
     1
 10
2127.5065917969
 20
1472.2795410156
 40
2.9369072914
 50
110.6902313232
 51
254.7997131348
  0
LINE
  8
DOGSV_6
  6
DOGSL_1
 62
     1
 10
2117.2143554688
 20
1480.1184082031
 11
2117.9545898438
 21
1464.6832275391
  0
LINE
  8
DOGSV_6
  6
DOGSL_1
 62
     1
 10
2132.0190429688
 20
1472.49609375
 11
2109.8447265625
 21
1471.4324951172
  0
LINE
  8
DOGSV_6
  6
DOGSL_1
 62
     1
 10
2127.5444335938
 20
1473.4727783203
 11
2129.5422363281
 21
1473.5686035156
  0
LINE
  8
DOGSV_6
  6
DOGSL_1
 62
     1
 10
2127.6584472656
 20
1471.0954589844
 11
2129.65625
 21
1471.1912841797
  0
LINE
  8
DOGSV_6
  6
DOGSL_1
 62
     1
 10
2128.0803222656
 20
1462.2956542969
 11
2303.2751464844
 21
1470.6986083984
  0
LINE
  8
DOGSV_6
  6
DOGSL_1
 62
     1
 10
2115.62890625
 20
1460.9865722656
 11
2315.794921875
 21
1470.5872802734
  0
LINE
  8
DOGSV_6
  6
DOGSL_1
 62
     1
 10
2182.5141601562
 20
1469.1192626953
 11
2182.8881835938
 21
1461.3203125
  0
LINE
  8
DOGSV_6
  6
DOGSL_1
 62
     1
 10
2185.5485839844
 20
1463.8796386719
 11
2179.9951171875
 21
1463.61328125
  0
LINE
  8
DOGSV_6
  6
DOGSL_1
 62
     1
 10
2184.5627441406
 20
1462.1003417969
 11
2181.1467285156
 21
1461.9365234375
  0
LINE
  8
DOGSV_6
  6
DOGSL_1
 62
     1
 10
2185.5266113281
 20
1464.3391113281
 11
2185.5803222656
 21
1463.2204589844
  0
LINE
  8
DOGSV_6
  6
DOGSL_1
 62
     1
 10
2179.9731445312
 20
1464.0727539062
 11
2180.0266113281
 21
1462.9539794922
  0
ARC
  8
DOGSV_6
  6
DOGSL_1
 62
     1
 10
2181.0954589844
 20
1463.0052490234
 40
1.069989562
 50
182.7469787598
 51
272.7469787598
  0
ARC
  8
DOGSV_6
  6
DOGSL_1
 62
     1
 10
2184.5114746094
 20
1463.1690673828
 40
1.069989562
 50
272.7470092773
 51
2.7469923496
  0
LINE
  8
DOGSV_6
  6
DOGSL_1
 62
     1
 10
2218.5107421875
 20
1465.4606933594
 11
2212.9572753906
 21
1465.1943359375
  0
LINE
  8
DOGSV_6
  6
DOGSL_1
 62
     1
 10
2217.5249023438
 20
1463.6813964844
 11
2214.1088867188
 21
1463.517578125
  0
LINE
  8
DOGSV_6
  6
DOGSL_1
 62
     1
 10
2218.4887695312
 20
1465.9201660156
 11
2218.5424804688
 21
1464.8013916016
  0
LINE
  8
DOGSV_6
  6
DOGSL_1
 62
     1
 10
2212.9350585938
 20
1465.6536865234
 11
2212.9887695312
 21
1464.5350341797
  0
ARC
  8
DOGSV_6
  6
DOGSL_1
 62
     1
 10
2214.0576171875
 20
1464.5863037109
 40
1.069989562
 50
182.7469787598
 51
272.7469787598
  0
ARC
  8
DOGSV_6
  6
DOGSL_1
 62
     1
 10
2217.4736328125
 20
1464.7501220703
 40
1.069989562
 50
272.7470092773
 51
2.7469923496
  0
LINE
  8
DOGSV_6
  6
DOGSL_1
 62
     1
 10
2125.5844726562
 20
1556.0837402344
 11
2128.0732421875
 21
1504.193359375
  0
LINE
  8
DOGSV_6
  6
DOGSL_1
 62
     1
 10
2126.0754394531
 20
1504.0975341797
 11
2123.5866699219
 21
1555.9879150391
  0
LINE
  8
DOGSV_6
  6
DOGSL_1
 62
     1
 10
2123.5866699219
 20
1555.9879150391
 11
2121.0979003906
 21
1607.8782958984
  0
LINE
  8
DOGSV_6
  6
DOGSL_1
 62
     1
 10
2123.095703125
 20
1607.9741210938
 11
2125.5844726562
 21
1556.0837402344
  0
LINE
  8
DOGSV_6
  6
DOGSL_3
 62
     3
 10
2303.677734375
 20
1564.6257324219
 11
2068.5405273438
 21
1553.3477783203
  0
LINE
  8
DOGSV_6
  6
DOGSL_1
 62
     1
 10
2124.3205566406
 20
1540.685546875
 11
2107.3801269531
 21
1539.873046875
  0
LINE
  8
DOGSV_6
  6
DOGSL_1
 62
     1
 10
2125.4904785156
 20
1516.2934570312
 11
2108.7348632812
 21
1515.4897460938
  0
LINE
  8
DOGSV_6
  6
DOGSL_1
 62
     1
 10
2122.8527832031
 20
1571.2904052734
 11
2105.9128417969
 21
1570.4779052734
  0
LINE
  8
DOGSV_6
  6
DOGSL_1
 62
     1
 10
2121.6618652344
 20
1596.1218261719
 11
2104.9145507812
 21
1595.3184814453
  0
ARC
  8
DOGSV_6
  6
DOGSL_1
 62
     1
 10
2145.9914550781
 20
1601.7445068359
 40
9.3986616135
 50
312.3667907715
 51
266.0378417969
  0
ARC
  8
DOGSV_6
  6
DOGSL_1
 62
     1
 10
2146.8796386719
 20
1599.1943359375
 40
6.9971089363
 50
321.0987854004
 51
257.3059082031
  0
LINE
  8
DOGSV_6
  6
DOGSL_1
 62
     1
 10
2133.2912597656
 20
1589.0444335938
 11
2158.69140625
 21
1589.0444335938
  0
LINE
  8
DOGSV_6
  6
DOGSL_1
 62
     1
 10
2158.69140625
 20
1589.0444335938
 11
2158.69140625
 21
1614.4444580078
  0
CIRCLE
  8
DOGSV_6
  6
DOGSL_1
 62
     1
 10
2155.5163574219
 20
1592.2194824219
 40
1.5
  0
CIRCLE
  8
DOGSV_6
  6
DOGSL_1
 62
     1
 10
2136.4663085938
 20
1592.2194824219
 40
1.5
  0
LINE
  8
DOGSV_6
  6
DOGSL_1
 62
     1
 10
2125.197265625
 20
946.7631835938
 11
2291.4753417969
 21
946.7631835938
  0
LINE
  8
DOGSV_6
  6
DOGSL_1
 62
     1
 10
2120.6381835938
 20
1018.5631713867
 11
2296.0341796875
 21
1018.5631713867
  0
LINE
  8
DOGSV_6
  6
DOGSL_1
 62
     1
 10
2123.3361816406
 20
1001.5631713867
 11
2293.3361816406
 21
1001.5631713867
  0
LINE
  8
DOGSV_6
  6
DOGSL_1
 62
     1
 10
2122.6381835938
 20
999.9631958008
 11
2294.0341796875
 21
999.9631958008
  0
LINE
  8
DOGSV_6
  6
DOGSL_1
 62
     1
 10
2123.3361816406
 20
979.9631958008
 11
2293.3361816406
 21
979.9631958008
  0
LINE
  8
DOGSV_6
  6
DOGSL_1
 62
     1
 10
2123.3361816406
 20
978.3632202148
 11
2293.3361816406
 21
978.3632202148
  0
LINE
  8
DOGSV_6
  6
DOGSL_1
 62
     1
 10
2123.3361816406
 20
958.3632202148
 11
2293.3361816406
 21
958.3632202148
  0
LINE
  8
DOGSV_6
  6
DOGSL_1
 62
     1
 10
2123.3361816406
 20
956.7631835938
 11
2293.3361816406
 21
956.7631835938
  0
LINE
  8
DOGSV_6
  6
DOGSL_1
 62
     1
 10
2120.6381835938
 20
1020.5631713867
 11
2296.0341796875
 21
1020.5631713867
  0
LINE
  8
DOGSV_6
  6
DOGSL_1
 62
     1
 10
2125.197265625
 20
947.3222045898
 11
2291.4753417969
 21
947.3222045898
  0
LINE
  8
DOGSV_6
  6
DOGSL_1
 62
     1
 10
2139.5363769531
 20
1012.6632080078
 11
2277.1362304688
 21
1012.6632080078
  0
LINE
  8
DOGSV_6
  6
DOGSL_1
 62
     1
 10
2139.5363769531
 20
955.2131958008
 11
2277.1362304688
 21
955.2131958008
  0
LINE
  8
DOGSV_6
  6
DOGSL_1
 62
     1
 10
2094.6018066406
 20
1076.5451660156
 11
2095.3840332031
 21
1075.7631835938
  0
LINE
  8
DOGSV_6
  6
DOGSL_1
 62
     1
 10
2099.6208496094
 20
1044.052734375
 11
2102.0083007812
 21
1046.4401855469
  0
LINE
  8
DOGSV_6
  6
DOGSL_1
 62
     1
 10
2096.6208496094
 20
1051.3150634766
 11
2094.0209960938
 21
1051.3150634766
  0
LINE
  8
DOGSV_6
  6
DOGSL_1
 62
     1
 10
2096.6208496094
 20
1067.3150634766
 11
2094.0209960938
 21
1067.3150634766
  0
LINE
  8
DOGSV_6
  6
DOGSL_1
 62
     1
 10
2094.0209960938
 20
1067.3150634766
 11
2094.0209960938
 21
1051.3150634766
  0
LINE
  8
DOGSV_6
  6
DOGSL_1
 62
     1
 10
2096.3208007812
 20
1051.3150634766
 11
2096.3208007812
 21
1067.3150634766
  0
LINE
  8
DOGSV_6
  6
DOGSL_1
 62
     1
 10
2096.0209960938
 20
1067.3150634766
 11
2096.0209960938
 21
1051.3150634766
  0
LINE
  8
DOGSV_6
  6
DOGSL_1
 62
     1
 10
2102.0083007812
 20
1032.6248779297
 11
2102.0083007812
 21
1038.2631835938
  0
LINE
  8
DOGSV_6
  6
DOGSL_1
 62
     1
 10
2102.3083496094
 20
1049.7132568359
 11
2102.3083496094
 21
1032.6248779297
  0
LINE
  8
DOGSV_6
  6
DOGSL_1
 62
     1
 10
2099.6208496094
 20
1075.7631835938
 11
2099.6208496094
 21
1043.7631835938
  0
LINE
  8
DOGSV_6
  6
DOGSL_1
 62
     1
 10
2098.6208496094
 20
1086.0131835938
 11
2098.6208496094
 21
1082.9233398438
  0
LINE
  8
DOGSV_6
  6
DOGSL_1
 62
     1
 10
2098.6618652344
 20
1040.9722900391
 11
2102.0083007812
 21
1044.3189697266
  0
LINE
  8
DOGSV_6
  6
DOGSL_1
 62
     1
 10
2098.6208496094
 20
1043.7631835938
 11
2098.6208496094
 21
1038.2631835938
  0
LINE
  8
DOGSV_6
  6
DOGSL_1
 62
     1
 10
2096.6208496094
 20
1074.7631835938
 11
2096.6208496094
 21
1044.7631835938
  0
LINE
  8
DOGSV_6
  6
DOGSL_1
 62
     1
 10
2100.8076171875
 20
1083.4232177734
 11
2102.0083007812
 21
1084.6240234375
  0
LINE
  8
DOGSV_6
  6
DOGSL_1
 62
     1
 10
2094.6018066406
 20
1080.1031494141
 11
2094.6018066406
 21
1075.7631835938
  0
LINE
  8
DOGSV_6
  6
DOGSL_1
 62
     1
 10
2098.6208496094
 20
1080.1030273438
 11
2098.6208496094
 21
1075.7631835938
  0
LINE
  8
DOGSV_6
  6
DOGSL_1
 62
     1
 10
2098.6208496094
 20
1076.9937744141
 11
2101.2299804688
 21
1079.6029052734
  0
LINE
  8
DOGSV_6
  6
DOGSL_1
 62
     1
 10
2099.5661621094
 20
1075.8178710938
 11
2102.0083007812
 21
1078.2600097656
  0
LINE
  8
DOGSV_6
  6
DOGSL_1
 62
     1
 10
2099.6208496094
 20
1073.7512207031
 11
2102.0083007812
 21
1076.138671875
  0
LINE
  8
DOGSV_6
  6
DOGSL_1
 62
     1
 10
2099.8041992188
 20
1071.8132324219
 11
2102.0083007812
 21
1074.0174560547
  0
LINE
  8
DOGSV_6
  6
DOGSL_1
 62
     1
 10
2099.6208496094
 20
1069.5085449219
 11
2099.9255371094
 21
1069.8132324219
  0
LINE
  8
DOGSV_6
  6
DOGSL_1
 62
     1
 10
2099.6208496094
 20
1067.3872070312
 11
2102.046875
 21
1069.8132324219
  0
LINE
  8
DOGSV_6
  6
DOGSL_1
 62
     1
 10
2099.6208496094
 20
1065.2658691406
 11
2102.0083007812
 21
1067.6534423828
  0
LINE
  8
DOGSV_6
  6
DOGSL_1
 62
     1
 10
2099.6208496094
 20
1063.1446533203
 11
2102.0083007812
 21
1065.5321044922
  0
LINE
  8
DOGSV_6
  6
DOGSL_1
 62
     1
 10
2098.6208496094
 20
1079.115234375
 11
2099.1086425781
 21
1079.6030273438
  0
LINE
  8
DOGSV_6
  6
DOGSL_1
 62
     1
 10
2098.6862792969
 20
1083.4233398438
 11
2101.2761230469
 21
1086.0131835938
  0
LINE
  8
DOGSV_6
  6
DOGSL_1
 62
     1
 10
2098.6208496094
 20
1085.4791259766
 11
2099.1550292969
 21
1086.0131835938
  0
LINE
  8
DOGSV_6
  6
DOGSL_1
 62
     1
 10
2099.6208496094
 20
1061.0233154297
 11
2102.0083007812
 21
1063.4107666016
  0
LINE
  8
DOGSV_6
  6
DOGSL_1
 62
     1
 10
2099.6208496094
 20
1058.9019775391
 11
2102.0083007812
 21
1061.2895507812
  0
LINE
  8
DOGSV_6
  6
DOGSL_1
 62
     1
 10
2099.6208496094
 20
1056.7806396484
 11
2102.0083007812
 21
1059.1680908203
  0
LINE
  8
DOGSV_6
  6
DOGSL_1
 62
     1
 10
2099.6208496094
 20
1054.6593017578
 11
2102.0083007812
 21
1057.0467529297
  0
LINE
  8
DOGSV_6
  6
DOGSL_1
 62
     1
 10
2099.6208496094
 20
1052.5379638672
 11
2102.0083007812
 21
1054.9255371094
  0
LINE
  8
DOGSV_6
  6
DOGSL_1
 62
     1
 10
2099.6208496094
 20
1050.4167480469
 11
2102.0083007812
 21
1052.8041992188
  0
LINE
  8
DOGSV_6
  6
DOGSL_1
 62
     1
 10
2099.6208496094
 20
1048.2954101562
 11
2102.0083007812
 21
1050.6828613281
  0
LINE
  8
DOGSV_6
  6
DOGSL_1
 62
     1
 10
2099.6208496094
 20
1046.1739501953
 11
2102.0083007812
 21
1048.5615234375
  0
LINE
  8
DOGSV_6
  6
DOGSL_1
 62
     1
 10
2098.6208496094
 20
1038.8101806641
 11
2102.0083007812
 21
1042.1976318359
  0
LINE
  8
DOGSV_6
  6
DOGSL_1
 62
     1
 10
2100.1953125
 20
1038.2631835938
 11
2102.0083007812
 21
1040.076171875
  0
LINE
  8
DOGSV_6
  6
DOGSL_1
 62
     1
 10
2098.6208496094
 20
1043.052734375
 11
2099.3312988281
 21
1043.7631835938
  0
LINE
  8
DOGSV_6
  6
DOGSL_1
 62
     1
 10
2102.0083007812
 20
1086.0131835938
 11
2098.6208496094
 21
1086.0131835938
  0
LINE
  8
DOGSV_6
  6
DOGSL_1
 62
     1
 10
2102.0083007812
 20
1038.2631835938
 11
2098.6208496094
 21
1038.2631835938
  0
LINE
  8
DOGSV_6
  6
DOGSL_1
 62
     1
 10
2099.6208496094
 20
1074.7631835938
 11
2096.6208496094
 21
1074.7631835938
  0
LINE
  8
DOGSV_6
  6
DOGSL_1
 62
     1
 10
2099.6208496094
 20
1044.7631835938
 11
2096.6208496094
 21
1044.7631835938
  0
LINE
  8
DOGSV_6
  6
DOGSL_1
 62
     1
 10
2099.6208496094
 20
1064.8004150391
 11
2096.6208496094
 21
1067.8004150391
  0
LINE
  8
DOGSV_6
  6
DOGSL_1
 62
     1
 10
2099.6208496094
 20
1061.9720458984
 11
2096.6208496094
 21
1064.9720458984
  0
LINE
  8
DOGSV_6
  6
DOGSL_1
 62
     1
 10
2099.6208496094
 20
1059.1435546875
 11
2096.6208496094
 21
1062.1435546875
  0
LINE
  8
DOGSV_6
  6
DOGSL_1
 62
     1
 10
2099.6208496094
 20
1056.3150634766
 11
2096.6208496094
 21
1059.3150634766
  0
LINE
  8
DOGSV_6
  6
DOGSL_1
 62
     1
 10
2099.6208496094
 20
1053.4866943359
 11
2096.6208496094
 21
1056.4866943359
  0
LINE
  8
DOGSV_6
  6
DOGSL_1
 62
     1
 10
2099.6208496094
 20
1067.6287841797
 11
2096.6208496094
 21
1070.6287841797
  0
LINE
  8
DOGSV_6
  6
DOGSL_1
 62
     1
 10
2099.6208496094
 20
1070.4571533203
 11
2096.6208496094
 21
1073.4571533203
  0
LINE
  8
DOGSV_6
  6
DOGSL_1
 62
     1
 10
2099.6208496094
 20
1073.2857666016
 11
2098.1433105469
 21
1074.7631835938
  0
LINE
  8
DOGSV_6
  6
DOGSL_1
 62
     1
 10
2099.6208496094
 20
1050.658203125
 11
2096.6208496094
 21
1053.658203125
  0
LINE
  8
DOGSV_6
  6
DOGSL_1
 62
     1
 10
2099.6208496094
 20
1047.8298339844
 11
2096.6208496094
 21
1050.8298339844
  0
LINE
  8
DOGSV_6
  6
DOGSL_1
 62
     1
 10
2099.6208496094
 20
1045.0013427734
 11
2096.6208496094
 21
1048.0013427734
  0
LINE
  8
DOGSV_6
  6
DOGSL_1
 62
     1
 10
2099.6208496094
 20
1043.7631835938
 11
2098.6208496094
 21
1043.7631835938
  0
LINE
  8
DOGSV_6
  6
DOGSL_1
 62
     1
 10
2099.6208496094
 20
1075.7631835938
 11
2098.6208496094
 21
1075.7631835938
  0
LINE
  8
DOGSV_6
  6
DOGSL_1
 62
     1
 10
2103.6784667969
 20
1069.8132324219
 11
2103.6784667969
 21
1049.7132568359
  0
LINE
  8
DOGSV_6
  6
DOGSL_1
 62
     1
 10
2103.6784667969
 20
1069.8132324219
 11
2102.0083007812
 21
1069.8132324219
  0
LINE
  8
DOGSV_6
  6
DOGSL_1
 62
     1
 10
2103.6784667969
 20
1049.7132568359
 11
2102.0083007812
 21
1049.7132568359
  0
LINE
  8
DOGSV_6
  6
DOGSL_1
 62
     1
 10
2098.1018066406
 20
1043.7631835938
 11
2098.1018066406
 21
1028.0131835938
  0
LINE
  8
DOGSV_6
  6
DOGSL_1
 62
     1
 10
2098.1018066406
 20
1075.7631835938
 11
2094.6018066406
 21
1075.7631835938
  0
LINE
  8
DOGSV_6
  6
DOGSL_1
 62
     1
 10
2098.1018066406
 20
1043.7631835938
 11
2094.6018066406
 21
1043.7631835938
  0
LINE
  8
DOGSV_6
  6
DOGSL_1
 62
     1
 10
2102.0083007812
 20
1080.1030273438
 11
2094.3334960938
 21
1080.1031494141
  0
LINE
  8
DOGSV_6
  6
DOGSL_1
 62
     1
 10
2102.0083007812
 20
1080.4931640625
 11
2093.943359375
 21
1080.4931640625
  0
LINE
  8
DOGSV_6
  6
DOGSL_1
 62
     1
 10
2102.0083007812
 20
1082.533203125
 11
2093.943359375
 21
1082.533203125
  0
LINE
  8
DOGSV_6
  6
DOGSL_1
 62
     1
 10
2102.0083007812
 20
1082.9232177734
 11
2094.3334960938
 21
1082.9234619141
  0
LINE
  8
DOGSV_6
  6
DOGSL_1
 62
     1
 10
2106.3933105469
 20
1081.5131835938
 11
2092.8208007812
 21
1081.5131835938
  0
LINE
  8
DOGSV_6
  6
DOGSL_1
 62
     1
 10
2102.0083007812
 20
1086.0131835938
 11
2102.0083007812
 21
1071.8132324219
  0
LINE
  8
DOGSV_6
  6
DOGSL_1
 62
     1
 10
2098.1018066406
 20
1080.1031494141
 11
2098.1018066406
 21
1075.7631835938
  0
LINE
  8
DOGSV_6
  6
DOGSL_1
 62
     1
 10
2102.0083007812
 20
1083.4232177734
 11
2098.6208496094
 21
1083.4233398438
  0
LINE
  8
DOGSV_6
  6
DOGSL_1
 62
     1
 10
2102.0083007812
 20
1079.6029052734
 11
2098.6208496094
 21
1079.6030273438
  0
LINE
  8
DOGSV_6
  6
DOGSL_1
 62
     1
 10
2105.3083496094
 20
1083.3132324219
 11
2105.3083496094
 21
1079.7132568359
  0
LINE
  8
DOGSV_6
  6
DOGSL_1
 62
     1
 10
2104.8083496094
 20
1083.8131103516
 11
2102.4682617188
 21
1083.8131103516
  0
LINE
  8
DOGSV_6
  6
DOGSL_1
 62
     1
 10
2104.8083496094
 20
1079.2132568359
 11
2102.4685058594
 21
1079.2132568359
  0
LINE
  8
DOGSV_6
  6
DOGSL_1
 62
     1
 10
2105.3083496094
 20
1083.3132324219
 11
2104.8083496094
 21
1083.8131103516
  0
LINE
  8
DOGSV_6
  6
DOGSL_1
 62
     1
 10
2104.8083496094
 20
1079.2132568359
 11
2105.3083496094
 21
1079.7132568359
  0
LINE
  8
DOGSV_6
  6
DOGSL_1
 62
     1
 10
2104.8083496094
 20
1083.8131103516
 11
2104.8083496094
 21
1079.2132568359
  0
LINE
  8
DOGSV_6
  6
DOGSL_1
 62
     1
 10
2102.4685058594
 20
1078.7331542969
 11
2102.4682617188
 21
1084.2932128906
  0
LINE
  8
DOGSV_6
  6
DOGSL_1
 62
     1
 10
2102.4682617188
 20
1084.2932128906
 11
2102.0083007812
 21
1084.2932128906
  0
LINE
  8
DOGSV_6
  6
DOGSL_1
 62
     1
 10
2102.4685058594
 20
1078.7331542969
 11
2102.0083007812
 21
1078.7331542969
  0
LINE
  8
DOGSV_6
  6
DOGSL_1
 62
     1
 10
2093.943359375
 20
1080.4931640625
 11
2093.943359375
 21
1082.533203125
  0
LINE
  8
DOGSV_6
  6
DOGSL_1
 62
     1
 10
2094.3332519531
 20
1080.1031494141
 11
2094.3332519531
 21
1082.9232177734
  0
LINE
  8
DOGSV_6
  6
DOGSL_1
 62
     1
 10
2093.943359375
 20
1080.4931640625
 11
2094.3332519531
 21
1080.1031494141
  0
LINE
  8
DOGSV_6
  6
DOGSL_1
 62
     1
 10
2093.943359375
 20
1082.533203125
 11
2094.3332519531
 21
1082.9232177734
  0
LINE
  8
DOGSV_6
  6
DOGSL_1
 62
     1
 10
2098.6018066406
 20
1078.4632568359
 11
2098.1018066406
 21
1078.4632568359
  0
LINE
  8
DOGSV_6
  6
DOGSL_1
 62
     1
 10
2097.0307617188
 20
1044.7631835938
 11
2096.6208496094
 21
1045.1729736328
  0
LINE
  8
DOGSV_6
  6
DOGSL_1
 62
     1
 10
2103.3784179688
 20
1071.8132324219
 11
2099.6208496094
 21
1071.8132324219
  0
LINE
  8
DOGSV_6
  6
DOGSL_1
 62
     1
 10
2105.1201171875
 20
1070.8132324219
 11
2098.9699707031
 21
1070.8132324219
  0
LINE
  8
DOGSV_6
  6
DOGSL_1
 62
     1
 10
2102.0083007812
 20
1069.8132324219
 11
2099.6208496094
 21
1069.8132324219
  0
LINE
  8
DOGSV_6
  6
DOGSL_1
 62
     1
 10
2103.6784667969
 20
1071.5131835938
 11
2103.6784667969
 21
1070.1131591797
  0
LINE
  8
DOGSV_6
  6
DOGSL_1
 62
     1
 10
2103.6784667969
 20
1071.5131835938
 11
2103.3784179688
 21
1071.8132324219
  0
LINE
  8
DOGSV_6
  6
DOGSL_1
 62
     1
 10
2103.6784667969
 20
1070.1131591797
 11
2103.3784179688
 21
1069.8132324219
  0
LINE
  8
DOGSV_6
  6
DOGSL_1
 62
     1
 10
2103.3784179688
 20
1071.8132324219
 11
2103.3784179688
 21
1069.8132324219
  0
LINE
  8
DOGSV_6
  6
DOGSL_1
 62
     1
 10
2102.0083007812
 20
1069.8132324219
 11
2102.0083007812
 21
1038.2631835938
  0
LINE
  8
DOGSV_6
  6
DOGSL_1
 62
     1
 10
2099.7202148438
 20
1071.5131835938
 11
2099.7202148438
 21
1070.1131591797
  0
LINE
  8
DOGSV_6
  6
DOGSL_1
 62
     1
 10
2099.7202148438
 20
1071.5131835938
 11
2100.0202636719
 21
1071.8132324219
  0
LINE
  8
DOGSV_6
  6
DOGSL_1
 62
     1
 10
2099.7202148438
 20
1070.1131591797
 11
2100.0202636719
 21
1069.8132324219
  0
LINE
  8
DOGSV_6
  6
DOGSL_1
 62
     1
 10
2100.0202636719
 20
1071.8132324219
 11
2100.0202636719
 21
1069.8132324219
  0
LINE
  8
DOGSV_6
  6
DOGSL_1
 62
     1
 10
2105.0083007812
 20
1048.0382080078
 11
2105.5083007812
 21
1048.0382080078
  0
LINE
  8
DOGSV_6
  6
DOGSL_1
 62
     1
 10
2105.0083007812
 20
1043.3881835938
 11
2105.5083007812
 21
1043.3881835938
  0
LINE
  8
DOGSV_6
  6
DOGSL_1
 62
     1
 10
2105.5083007812
 20
1043.5931396484
 11
2105.9682617188
 21
1043.5931396484
  0
LINE
  8
DOGSV_6
  6
DOGSL_1
 62
     1
 10
2105.5083007812
 20
1047.8332519531
 11
2105.9682617188
 21
1047.8332519531
  0
LINE
  8
DOGSV_6
  6
DOGSL_1
 62
     1
 10
2105.5083007812
 20
1048.0382080078
 11
2105.5083007812
 21
1043.3881835938
  0
LINE
  8
DOGSV_6
  6
DOGSL_1
 62
     1
 10
2106.8583984375
 20
1046.9432373047
 11
2106.8583984375
 21
1044.4831542969
  0
ARC
  8
DOGSV_6
  6
DOGSL_1
 62
     1
 10
2105.9682617188
 20
1044.4831542969
 40
0.8899999857
 50
270.0
 51
0.0
  0
ARC
  8
DOGSV_6
  6
DOGSL_1
 62
     1
 10
2105.9682617188
 20
1046.9432373047
 40
0.8899999857
 50
0.0
 51
90.0
  0
LINE
  8
DOGSV_6
  6
DOGSL_1
 62
     1
 10
2109.3908691406
 20
1045.7132568359
 11
2102.0083007812
 21
1045.7132568359
  0
LINE
  8
DOGSV_6
  6
DOGSL_1
 62
     1
 10
2105.0083007812
 20
1049.7132568359
 11
2105.0083007812
 21
1038.2631835938
  0
LINE
  8
DOGSV_6
  6
DOGSL_1
 62
     1
 10
2105.0083007812
 20
1049.7132568359
 11
2103.6784667969
 21
1049.7132568359
  0
LINE
  8
DOGSV_6
  6
DOGSL_1
 62
     1
 10
2103.6784667969
 20
1049.7132568359
 11
2103.6784667969
 21
1046.9632568359
  0
LINE
  8
DOGSV_6
  6
DOGSL_1
 62
     1
 10
2103.6784667969
 20
1046.9632568359
 11
2102.3083496094
 21
1046.9632568359
  0
LINE
  8
DOGSV_6
  6
DOGSL_1
 62
     1
 10
2105.0083007812
 20
1038.2631835938
 11
2102.3083496094
 21
1038.2631835938
  0
LINE
  8
DOGSV_6
  6
DOGSL_1
 62
     1
 10
2098.6018066406
 20
1084.5632324219
 11
2098.1018066406
 21
1084.5632324219
  0
LINE
  8
DOGSV_6
  6
DOGSL_1
 62
     1
 10
2096.7006835938
 20
1080.1031494141
 11
2098.1018066406
 21
1078.7020263672
  0
LINE
  8
DOGSV_6
  6
DOGSL_1
 62
     1
 10
2094.6018066406
 20
1032.4078369141
 11
2098.1018066406
 21
1028.9077148438
  0
LINE
  8
DOGSV_6
  6
DOGSL_1
 62
     1
 10
2070.3464355469
 20
1086.7631835938
 11
2070.3464355469
 21
1094.8120117188
  0
ARC
  8
DOGSV_6
  6
DOGSL_1
 62
     1
 10
2072.3464355469
 20
1086.7631835938
 40
2.0
 50
180.0001220703
 51
270.0
  0
LINE
  8
DOGSV_6
  6
DOGSL_1
 62
     1
 10
2070.3464355469
 20
1094.8120117188
 11
2068.3464355469
 21
1094.8120117188
  0
LINE
  8
DOGSV_6
  6
DOGSL_1
 62
     1
 10
2092.6018066406
 20
1084.7631835938
 11
2072.3464355469
 21
1084.7631835938
  0
LINE
  8
DOGSV_6
  6
DOGSL_1
 62
     1
 10
2093.6018066406
 20
1083.9632568359
 11
2068.3464355469
 21
1083.9632568359
  0
ARC
  8
DOGSV_6
  6
DOGSL_1
 62
     1
 10
2092.6018066406
 20
1086.7631835938
 40
2.0
 50
269.9998779297
 51
0.0
  0
LINE
  8
DOGSV_6
  6
DOGSL_1
 62
     1
 10
2094.6018066406
 20
1086.7631835938
 11
2094.6018066406
 21
1091.5130615234
  0
LINE
  8
DOGSV_6
  6
DOGSL_1
 62
     1
 10
2098.1018066406
 20
1091.5130615234
 11
2094.6018066406
 21
1091.5130615234
  0
LINE
  8
DOGSV_6
  6
DOGSL_1
 62
     1
 10
2098.1018066406
 20
1082.9233398438
 11
2098.1018066406
 21
1091.5130615234
  0
ARC
  8
DOGSV_6
  6
DOGSL_1
 62
     1
 10
2093.6018066406
 20
1082.9632568359
 40
1.0
 50
0.0001296997
 51
90.0
  0
ARC
  8
DOGSV_6
  6
DOGSL_1
 62
     1
 10
2093.6018066406
 20
1036.5632324219
 40
1.0
 50
270.0001220703
 51
0.0
  0
LINE
  8
DOGSV_6
  6
DOGSL_1
 62
     1
 10
2093.6018066406
 20
1035.5632324219
 11
2068.3464355469
 21
1035.5632324219
  0
LINE
  8
DOGSV_6
  6
DOGSL_1
 62
     1
 10
2092.6018066406
 20
1034.7631835938
 11
2072.3464355469
 21
1034.7631835938
  0
ARC
  8
DOGSV_6
  6
DOGSL_1
 62
     1
 10
2092.6018066406
 20
1032.7631835938
 40
2.0
 50
359.9998779297
 51
90.0
  0
LINE
  8
DOGSV_6
  6
DOGSL_1
 62
     1
 10
2094.6018066406
 20
1032.7631835938
 11
2094.6018066406
 21
1028.0131835938
  0
LINE
  8
DOGSV_6
  6
DOGSL_1
 62
     1
 10
2098.1018066406
 20
1028.0131835938
 11
2094.6018066406
 21
1028.0131835938
  0
ARC
  8
DOGSV_6
  6
DOGSL_1
 62
     1
 10
2072.3464355469
 20
1032.7631835938
 40
2.0
 50
90.0001296997
 51
180.0
  0
LINE
  8
DOGSV_6
  6
DOGSL_1
 62
     1
 10
2070.3464355469
 20
1032.7631835938
 11
2070.3464355469
 21
1023.8743896484
  0
LINE
  8
DOGSV_6
  6
DOGSL_1
 62
     1
 10
2070.3464355469
 20
1023.8743896484
 11
2068.3464355469
 21
1023.8743896484
  0
LINE
  8
DOGSV_6
  6
DOGSL_1
 62
     1
 10
2094.6018066406
 20
1036.4887695312
 11
2094.6018066406
 21
1043.7631835938
  0
LINE
  8
DOGSV_6
  6
DOGSL_1
 62
     1
 10
2102.3837890625
 20
1069.8132324219
 11
2103.6784667969
 21
1068.77734375
  0
LINE
  8
DOGSV_6
  6
DOGSL_1
 62
     1
 10
2102.0083007812
 20
1068.8327636719
 11
2103.6784667969
 21
1067.4967041016
  0
LINE
  8
DOGSV_6
  6
DOGSL_1
 62
     1
 10
2102.0083007812
 20
1067.5521240234
 11
2103.6784667969
 21
1066.2159423828
  0
LINE
  8
DOGSV_6
  6
DOGSL_1
 62
     1
 10
2102.0083007812
 20
1066.271484375
 11
2103.6784667969
 21
1064.9354248047
  0
LINE
  8
DOGSV_6
  6
DOGSL_1
 62
     1
 10
2102.0083007812
 20
1064.9908447266
 11
2103.6784667969
 21
1063.6546630859
  0
LINE
  8
DOGSV_6
  6
DOGSL_1
 62
     1
 10
2102.0083007812
 20
1063.7100830078
 11
2103.6784667969
 21
1062.3740234375
  0
LINE
  8
DOGSV_6
  6
DOGSL_1
 62
     1
 10
2102.0083007812
 20
1062.4295654297
 11
2103.6784667969
 21
1061.0933837891
  0
LINE
  8
DOGSV_6
  6
DOGSL_1
 62
     1
 10
2102.0083007812
 20
1061.1488037109
 11
2103.7026367188
 21
1059.7934570312
  0
LINE
  8
DOGSV_6
  6
DOGSL_1
 62
     1
 10
2102.0083007812
 20
1059.8681640625
 11
2103.6784667969
 21
1058.5319824219
  0
LINE
  8
DOGSV_6
  6
DOGSL_1
 62
     1
 10
2102.0083007812
 20
1056.0262451172
 11
2103.6784667969
 21
1054.6899414062
  0
LINE
  8
DOGSV_6
  6
DOGSL_1
 62
     1
 10
2102.0083007812
 20
1057.3067626953
 11
2103.7026367188
 21
1055.9514160156
  0
LINE
  8
DOGSV_6
  6
DOGSL_1
 62
     1
 10
2102.0083007812
 20
1058.5875244141
 11
2103.6784667969
 21
1057.2513427734
  0
LINE
  8
DOGSV_6
  6
DOGSL_1
 62
     1
 10
2102.0083007812
 20
1052.1842041016
 11
2103.6784667969
 21
1050.8481445312
  0
LINE
  8
DOGSV_6
  6
DOGSL_1
 62
     1
 10
2102.0083007812
 20
1053.46484375
 11
2103.7026367188
 21
1052.109375
  0
LINE
  8
DOGSV_6
  6
DOGSL_1
 62
     1
 10
2102.0083007812
 20
1054.7454833984
 11
2103.6784667969
 21
1053.4094238281
  0
LINE
  8
DOGSV_6
  6
DOGSL_1
 62
     1
 10
2102.0083007812
 20
1050.9035644531
 11
2103.49609375
 21
1049.7132568359
  0
LINE
  8
DOGSV_6
  6
DOGSL_1
 62
     1
 10
2094.6018066406
 20
1038.0645751953
 11
2098.1018066406
 21
1034.5645751953
  0
LINE
  8
DOGSV_6
  6
DOGSL_1
 62
     1
 10
2094.1262207031
 20
1035.7116699219
 11
2098.1018066406
 21
1031.7362060547
  0
LINE
  8
DOGSV_6
  6
DOGSL_1
 62
     1
 10
2091.4462890625
 20
1035.5632324219
 11
2092.2463378906
 21
1034.7631835938
  0
LINE
  8
DOGSV_6
  6
DOGSL_1
 62
     1
 10
2088.6179199219
 20
1035.5632324219
 11
2089.41796875
 21
1034.7631835938
  0
LINE
  8
DOGSV_6
  6
DOGSL_1
 62
     1
 10
2094.6018066406
 20
1029.5793457031
 11
2096.16796875
 21
1028.0131835938
  0
LINE
  8
DOGSV_6
  6
DOGSL_1
 62
     1
 10
2094.6018066406
 20
1040.8929443359
 11
2098.1018066406
 21
1037.3929443359
  0
LINE
  8
DOGSV_6
  6
DOGSL_1
 62
     1
 10
2094.6018066406
 20
1043.7215576172
 11
2098.1018066406
 21
1040.2215576172
  0
LINE
  8
DOGSV_6
  6
DOGSL_1
 62
     1
 10
2085.7895507812
 20
1035.5632324219
 11
2086.5895996094
 21
1034.7631835938
  0
LINE
  8
DOGSV_6
  6
DOGSL_1
 62
     1
 10
2082.9611816406
 20
1035.5632324219
 11
2083.7612304688
 21
1034.7631835938
  0
LINE
  8
DOGSV_6
  6
DOGSL_1
 62
     1
 10
2080.1328125
 20
1035.5632324219
 11
2080.9326171875
 21
1034.7631835938
  0
LINE
  8
DOGSV_6
  6
DOGSL_1
 62
     1
 10
2077.3041992188
 20
1035.5632324219
 11
2078.1042480469
 21
1034.7631835938
  0
LINE
  8
DOGSV_6
  6
DOGSL_1
 62
     1
 10
2074.4758300781
 20
1035.5632324219
 11
2075.2758789062
 21
1034.7631835938
  0
LINE
  8
DOGSV_6
  6
DOGSL_1
 62
     1
 10
2071.6474609375
 20
1035.5632324219
 11
2072.4475097656
 21
1034.7631835938
  0
LINE
  8
DOGSV_6
  6
DOGSL_1
 62
     1
 10
2068.8190917969
 20
1035.5632324219
 11
2070.6162109375
 21
1033.7661132812
  0
LINE
  8
DOGSV_6
  6
DOGSL_1
 62
     1
 10
2068.3464355469
 20
1033.2072753906
 11
2070.3464355469
 21
1031.2073974609
  0
LINE
  8
DOGSV_6
  6
DOGSL_1
 62
     1
 10
2068.3464355469
 20
1030.37890625
 11
2070.3764648438
 21
1028.3488769531
  0
LINE
  8
DOGSV_6
  6
DOGSL_1
 62
     1
 10
2068.3464355469
 20
1027.5505371094
 11
2070.3464355469
 21
1025.5505371094
  0
LINE
  8
DOGSV_6
  6
DOGSL_1
 62
     1
 10
2068.3464355469
 20
1024.7221679688
 11
2069.1940917969
 21
1023.8743896484
  0
LINE
  8
DOGSV_6
  6
DOGSL_1
 62
     1
 10
2089.2124023438
 20
1084.7631835938
 11
2090.0122070312
 21
1083.9632568359
  0
LINE
  8
DOGSV_6
  6
DOGSL_1
 62
     1
 10
2086.3840332031
 20
1084.7631835938
 11
2087.1838378906
 21
1083.9632568359
  0
LINE
  8
DOGSV_6
  6
DOGSL_1
 62
     1
 10
2083.5554199219
 20
1084.7631835938
 11
2084.35546875
 21
1083.9632568359
  0
LINE
  8
DOGSV_6
  6
DOGSL_1
 62
     1
 10
2080.7270507812
 20
1084.7631835938
 11
2081.5270996094
 21
1083.9632568359
  0
LINE
  8
DOGSV_6
  6
DOGSL_1
 62
     1
 10
2068.3464355469
 20
1094.3153076172
 11
2070.3464355469
 21
1092.3154296875
  0
LINE
  8
DOGSV_6
  6
DOGSL_1
 62
     1
 10
2068.3464355469
 20
1091.4869384766
 11
2070.3464355469
 21
1089.4869384766
  0
LINE
  8
DOGSV_6
  6
DOGSL_1
 62
     1
 10
2092.0407714844
 20
1084.7631835938
 11
2092.8408203125
 21
1083.9632568359
  0
LINE
  8
DOGSV_6
  6
DOGSL_1
 62
     1
 10
2094.1433105469
 20
1085.4888916016
 11
2096.708984375
 21
1082.9233398438
  0
LINE
  8
DOGSV_6
  6
DOGSL_1
 62
     1
 10
2094.6018066406
 20
1087.8588867188
 11
2098.1018066406
 21
1084.3588867188
  0
LINE
  8
DOGSV_6
  6
DOGSL_1
 62
     1
 10
2094.6018066406
 20
1090.6873779297
 11
2098.0864257812
 21
1087.2027587891
  0
LINE
  8
DOGSV_6
  6
DOGSL_1
 62
     1
 10
2094.6018066406
 20
1079.3736572266
 11
2098.1018066406
 21
1075.8736572266
  0
LINE
  8
DOGSV_6
  6
DOGSL_1
 62
     1
 10
2068.3464355469
 20
1088.6585693359
 11
2070.2941894531
 21
1086.7108154297
  0
LINE
  8
DOGSV_6
  6
DOGSL_1
 62
     1
 10
2068.3464355469
 20
1085.830078125
 11
2070.2133789062
 21
1083.9632568359
  0
LINE
  8
DOGSV_6
  6
DOGSL_1
 62
     1
 10
2096.6044921875
 20
1091.5130615234
 11
2098.1018066406
 21
1090.0157470703
  0
LINE
  8
DOGSV_6
  6
DOGSL_1
 62
     1
 10
2077.8986816406
 20
1084.7631835938
 11
2078.6984863281
 21
1083.9632568359
  0
LINE
  8
DOGSV_6
  6
DOGSL_1
 62
     1
 10
2075.0703125
 20
1084.7631835938
 11
2075.8701171875
 21
1083.9632568359
  0
LINE
  8
DOGSV_6
  6
DOGSL_1
 62
     1
 10
2072.2941894531
 20
1084.7108154297
 11
2073.0417480469
 21
1083.9632568359
  0
LINE
  8
DOGSV_6
  6
DOGSL_1
 62
     1
 10
2123.3361816406
 20
1001.5631713867
 11
2123.3361816406
 21
999.9631958008
  0
LINE
  8
DOGSV_6
  6
DOGSL_1
 62
     1
 10
2101.6381835938
 20
945.7631835938
 11
2120.6381835938
 21
945.7631835938
  0
LINE
  8
DOGSV_6
  6
DOGSL_1
 62
     1
 10
2139.8361816406
 20
1017.5631713867
 11
2145.1843261719
 21
1017.5631713867
  0
LINE
  8
DOGSV_6
  6
DOGSL_1
 62
     1
 10
2142.3361816406
 20
1019.4821777344
 11
2142.3361816406
 21
1015.1801757812
  0
ARC
  8
DOGSV_6
  6
DOGSL_1
 62
     1
 10
2142.3361816406
 20
1017.5632324219
 40
1.4100306034
 50
226.0953674316
 51
131.1315612793
  0
CIRCLE
  8
DOGSV_6
  6
DOGSL_1
 62
     1
 10
2142.3361816406
 20
1017.5631713867
 40
1.0199999809
  0
LINE
  8
DOGSV_6
  6
DOGSL_1
 62
     1
 10
2139.3361816406
 20
1014.5631713867
 11
2139.3361816406
 21
1015.5631713867
  0
LINE
  8
DOGSV_6
  6
DOGSL_1
 62
     1
 10
2145.3361816406
 20
1015.5631713867
 11
2145.3361816406
 21
1014.5631713867
  0
LINE
  8
DOGSV_6
  6
DOGSL_1
 62
     1
 10
2139.3361816406
 20
1014.5631713867
 11
2145.3361816406
 21
1014.5631713867
  0
ARC
  8
DOGSV_6
  6
DOGSL_1
 62
     1
 10
2148.3361816406
 20
1015.5631713867
 40
3.0
 50
90.0
 51
180.0
  0
ARC
  8
DOGSV_6
  6
DOGSL_1
 62
     1
 10
2136.3361816406
 20
1015.5631713867
 40
3.0
 50
0.0
 51
90.0
  0
ARC
  8
DOGSV_6
  6
DOGSL_1
 62
     1
 10
2119.1457519531
 20
1014.5631713867
 40
4.0
 50
90.0
 51
172.4932861328
  0
LINE
  8
DOGSV_6
  6
DOGSL_1
 62
     1
 10
2115.1801757812
 20
1015.0858154297
 11
2106.6381835938
 21
950.2631835938
  0
LINE
  8
DOGSV_6
  6
DOGSL_1
 62
     1
 10
2122.6381835938
 20
1018.5631713867
 11
2122.6381835938
 21
999.9631958008
  0
LINE
  8
DOGSV_6
  6
DOGSL_1
 62
     1
 10
2122.6381835938
 20
994.4631958008
 11
2122.6381835938
 21
946.7631835938
  0
LINE
  8
DOGSV_6
  6
DOGSL_1
 62
     1
 10
2127.3361816406
 20
1003.1632080078
 11
2127.3361816406
 21
993.7631835938
  0
LINE
  8
DOGSV_6
  6
DOGSL_1
 62
     1
 10
2131.3361816406
 20
996.4631958008
 11
2131.3361816406
 21
999.9631958008
  0
ARC
  8
DOGSV_6
  6
DOGSL_1
 62
     1
 10
2124.6381835938
 20
994.4631958008
 40
2.0
 50
90.0
 51
180.0
  0
LINE
  8
DOGSV_6
  6
DOGSL_1
 62
     1
 10
2124.6381835938
 20
996.4631958008
 11
2131.3361816406
 21
996.4631958008
  0
LINE
  8
DOGSV_6
  6
DOGSL_1
 62
     1
 10
2134.9318847656
 20
1012.5631713867
 11
2116.5319824219
 21
1012.5631713867
  0
LINE
  8
DOGSV_6
  6
DOGSL_1
 62
     1
 10
2130.9118652344
 20
1015.8632202148
 11
2121.1318359375
 21
1015.8632202148
  0
LINE
  8
DOGSV_6
  6
DOGSL_1
 62
     1
 10
2130.9118652344
 20
1009.2631835938
 11
2121.1318359375
 21
1009.2631835938
  0
LINE
  8
DOGSV_6
  6
DOGSL_1
 62
     1
 10
2128.3718261719
 20
1015.8632202148
 11
2128.3718261719
 21
1009.2631835938
  0
LINE
  8
DOGSV_6
  6
DOGSL_1
 62
     1
 10
2123.671875
 20
1015.8632202148
 11
2123.671875
 21
1009.2631835938
  0
LINE
  8
DOGSV_6
  6
DOGSL_1
 62
     1
 10
2121.1318359375
 20
1015.8632202148
 11
2121.1318359375
 21
1009.2631835938
  0
LINE
  8
DOGSV_6
  6
DOGSL_1
 62
     1
 10
2118.4519042969
 20
1015.3532104492
 11
2118.4519042969
 21
1009.7731933594
  0
LINE
  8
DOGSV_6
  6
DOGSL_1
 62
     1
 10
2133.591796875
 20
1015.3532104492
 11
2133.591796875
 21
1009.7731933594
  0
LINE
  8
DOGSV_6
  6
DOGSL_1
 62
     1
 10
2133.591796875
 20
1015.3532104492
 11
2130.9118652344
 21
1015.3532104492
  0
LINE
  8
DOGSV_6
  6
DOGSL_1
 62
     1
 10
2133.591796875
 20
1009.7731933594
 11
2130.9118652344
 21
1009.7731933594
  0
LINE
  8
DOGSV_6
  6
DOGSL_1
 62
     1
 10
2121.1318359375
 20
1015.3532104492
 11
2118.4519042969
 21
1015.3532104492
  0
LINE
  8
DOGSV_6
  6
DOGSL_1
 62
     1
 10
2121.1318359375
 20
1009.7731933594
 11
2118.4519042969
 21
1009.7731933594
  0
LINE
  8
DOGSV_6
  6
DOGSL_1
 62
     1
 10
2131.6228027344
 20
1016.6632080078
 11
2131.6228027344
 21
1005.2741699219
  0
LINE
  8
DOGSV_6
  6
DOGSL_1
 62
     1
 10
2130.9118652344
 20
1016.6632080078
 11
2130.9118652344
 21
1005.2741699219
  0
LINE
  8
DOGSV_6
  6
DOGSL_1
 62
     1
 10
2134.6228027344
 20
1002.2741699219
 11
2146.9118652344
 21
1002.2741699219
  0
ARC
  8
DOGSV_6
  6
DOGSL_1
 62
     1
 10
2134.6228027344
 20
1005.2741699219
 40
3.0
 50
180.0
 51
270.0
  0
ARC
  8
DOGSV_6
  6
DOGSL_1
 62
     1
 10
2134.6228027344
 20
1005.2741699219
 40
3.7109999657
 50
180.0
 51
270.0
  0
LINE
  8
DOGSV_6
  6
DOGSL_1
 62
     1
 10
2130.9118652344
 20
1016.6632080078
 11
2131.6228027344
 21
1016.6632080078
  0
LINE
  8
DOGSV_6
  6
DOGSL_1
 62
     1
 10
2146.9118652344
 20
1002.2741699219
 11
2146.9118652344
 21
1001.5631713867
  0
LINE
  8
DOGSV_6
  6
DOGSL_1
 62
     1
 10
2106.6381835938
 20
1014.5631713867
 11
2106.6381835938
 21
1012.7131958008
  0
ARC
  8
DOGSV_6
  6
DOGSL_1
 62
     1
 10
2110.6381835938
 20
1014.5631713867
 40
4.0
 50
90.0
 51
180.0
  0
LINE
  8
DOGSV_6
  6
DOGSL_1
 62
     1
 10
2120.6381835938
 20
1018.5631713867
 11
2110.6381835938
 21
1018.5631713867
  0
LINE
  8
DOGSV_6
  6
DOGSL_1
 62
     1
 10
2106.6381835938
 20
950.2631835938
 11
2101.6381835938
 21
950.2631835938
  0
LINE
  8
DOGSV_6
  6
DOGSL_1
 62
     1
 10
2101.6381835938
 20
950.2631835938
 11
2101.6381835938
 21
945.7631835938
  0
LINE
  8
DOGSV_6
  6
DOGSL_1
 62
     1
 10
2116.6381835938
 20
950.2631835938
 11
2106.6381835938
 21
950.2631835938
  0
ARC
  8
DOGSV_6
  6
DOGSL_1
 62
     1
 10
2116.6381835938
 20
953.2631835938
 40
3.0
 50
270.0
 51
360.0
  0
LINE
  8
DOGSV_6
  6
DOGSL_1
 62
     1
 10
2119.6381835938
 20
1016.5631713867
 11
2119.6381835938
 21
953.2631835938
  0
ARC
  8
DOGSV_6
  6
DOGSL_1
 62
     1
 10
2093.2055664062
 20
1032.6248779297
 40
9.1029405594
 50
305.5749816895
 51
0.0000305176
  0
ARC
  8
DOGSV_6
  6
DOGSL_1
 62
     1
 10
2102.5141601562
 20
1019.6107788086
 40
6.8976712227
 50
125.5757522583
 51
270.0005493164
  0
ARC
  8
DOGSV_6
  6
DOGSL_1
 62
     1
 10
2093.2055664062
 20
1032.6248779297
 40
8.8029747009
 50
305.5752258301
 51
0.0002746582
  0
ARC
  8
DOGSV_6
  6
DOGSL_1
 62
     1
 10
2102.5141601562
 20
1019.6107788086
 40
7.1976366043
 50
125.5754318237
 51
270.000213623
  0
LINE
  8
DOGSV_6
  6
DOGSL_1
 62
     1
 10
2102.5141601562
 20
1012.7131958008
 11
2118.4519042969
 21
1012.7131958008
  0
LINE
  8
DOGSV_6
  6
DOGSL_1
 62
     1
 10
2102.5141601562
 20
1012.4132080078
 11
2118.4519042969
 21
1012.4132080078
  0
LINE
  8
DOGSV_6
  6
DOGSL_1
 62
     1
 10
2106.6381835938
 20
1012.4132080078
 11
2106.6381835938
 21
950.2631835938
  0
LINE
  8
DOGSV_6
  6
DOGSL_1
 62
     1
 10
2110.6381835938
 20
955.2864990234
 11
2110.6381835938
 21
941.469909668
  0
LINE
  8
DOGSV_6
  6
DOGSL_1
 62
     1
 10
2120.6381835938
 20
1020.5631713867
 11
2120.6381835938
 21
945.7631835938
  0
LINE
  8
DOGSV_6
  6
DOGSL_1
 62
     1
 10
2110.412109375
 20
999.700012207
 11
2109.8430175781
 21
1010.3876953125
  0
ARC
  8
DOGSV_6
  6
DOGSL_1
 62
     1
 10
2113.1381835938
 20
1010.5631713867
 40
3.3000631332
 50
56.7475547791
 51
183.0483703613
  0
LINE
  8
DOGSV_6
  6
DOGSL_1
 62
     1
 10
2115.8645019531
 20
999.700012207
 11
2116.43359375
 21
1010.3876953125
  0
ARC
  8
DOGSV_6
  6
DOGSL_1
 62
     1
 10
2113.1381835938
 20
999.8450927734
 40
2.729985714
 50
281.9725952148
 51
356.9526367188
  0
LINE
  8
DOGSV_6
  6
DOGSL_1
 62
     1
 10
2110.412109375
 20
967.4263916016
 11
2109.8430175781
 21
956.7387084961
  0
ARC
  8
DOGSV_6
  6
DOGSL_1
 62
     1
 10
2113.1381835938
 20
967.2811889648
 40
2.729984045
 50
3.0488359928
 51
176.951751709
  0
LINE
  8
DOGSV_6
  6
DOGSL_1
 62
     1
 10
2115.8645019531
 20
967.4263916016
 11
2116.43359375
 21
956.7387084961
  0
ARC
  8
DOGSV_6
  6
DOGSL_1
 62
     1
 10
2113.1384277344
 20
956.5631713867
 40
3.2999911308
 50
176.9511108398
 51
3.0480957031
  0
LINE
  8
DOGSV_6
  6
DOGSL_1
 62
     1
 10
2115.3032226562
 20
961.7191772461
 11
2110.9233398438
 21
961.7191772461
  0
LINE
  8
DOGSV_6
  6
DOGSL_1
 62
     1
 10
2115.3032226562
 20
967.2811889648
 11
2110.9233398438
 21
967.2811889648
  0
LINE
  8
DOGSV_6
  6
DOGSL_1
 62
     1
 10
2115.3032226562
 20
1005.4072265625
 11
2110.9233398438
 21
1005.4072265625
  0
LINE
  8
DOGSV_6
  6
DOGSL_1
 62
     1
 10
2115.3032226562
 20
999.8452148438
 11
2110.9233398438
 21
999.8452148438
  0
LINE
  8
DOGSV_6
  6
DOGSL_1
 62
     1
 10
2110.408203125
 20
978.4932250977
 11
2110.408203125
 21
981.7092285156
  0
ARC
  8
DOGSV_6
  6
DOGSL_1
 62
     1
 10
2113.1381835938
 20
983.5631103516
 40
3.3000326157
 50
145.8187561035
 51
214.1795349121
  0
LINE
  8
DOGSV_6
  6
DOGSL_1
 62
     1
 10
2110.408203125
 20
985.4171142578
 11
2110.408203125
 21
988.6331787109
  0
ARC
  8
DOGSV_6
  6
DOGSL_1
 62
     1
 10
2113.1381835938
 20
988.6330566406
 40
2.7300608158
 50
114.1191482544
 51
179.9994812012
  0
LINE
  8
DOGSV_6
  6
DOGSL_1
 62
     1
 10
2115.8681640625
 20
985.4171142578
 11
2115.8681640625
 21
988.6331787109
  0
ARC
  8
DOGSV_6
  6
DOGSL_1
 62
     1
 10
2113.1381835938
 20
983.5631713867
 40
3.3000326157
 50
325.8187561035
 51
34.1797180176
  0
LINE
  8
DOGSV_6
  6
DOGSL_1
 62
     1
 10
2115.8681640625
 20
978.4932250977
 11
2115.8681640625
 21
981.7092285156
  0
ARC
  8
DOGSV_6
  6
DOGSL_1
 62
     1
 10
2113.1381835938
 20
978.4932250977
 40
2.7300503254
 50
193.0446472168
 51
359.9996337891
  0
LINE
  8
DOGSV_6
  6
DOGSL_1
 62
     1
 10
2115.3032226562
 20
978.5482177734
 11
2110.9233398438
 21
978.5482177734
  0
LINE
  8
DOGSV_6
  6
DOGSL_1
 62
     1
 10
2115.3032226562
 20
988.5781860352
 11
2110.9233398438
 21
988.5781860352
  0
LINE
  8
DOGSV_6
  6
DOGSL_1
 62
     1
 10
2116.9382324219
 20
983.5631713867
 11
2109.5383300781
 21
983.5631713867
  0
CIRCLE
  8
DOGSV_6
  6
DOGSL_1
 62
     1
 10
2113.1381835938
 20
983.5631713867
 40
2.7799999714
  0
LINE
  8
DOGSV_6
  6
DOGSL_1
 62
     1
 10
2111.5166015625
 20
985.8213500977
 11
2115.3962402344
 21
981.9415893555
  0
LINE
  8
DOGSV_6
  6
DOGSL_1
 62
     1
 10
2110.8803710938
 20
985.1848144531
 11
2114.759765625
 21
981.3051757812
  0
LINE
  8
DOGSV_6
  6
DOGSL_1
 62
     1
 10
2116.9382324219
 20
956.5631713867
 11
2109.5383300781
 21
956.5631713867
  0
CIRCLE
  8
DOGSV_6
  6
DOGSL_1
 62
     1
 10
2113.1381835938
 20
956.5631713867
 40
2.7799999714
  0
LINE
  8
DOGSV_6
  6
DOGSL_1
 62
     1
 10
2111.5166015625
 20
958.8213500977
 11
2115.3962402344
 21
954.9415893555
  0
LINE
  8
DOGSV_6
  6
DOGSL_1
 62
     1
 10
2110.8803710938
 20
958.1848144531
 11
2114.759765625
 21
954.3051757812
  0
LINE
  8
DOGSV_6
  6
DOGSL_1
 62
     1
 10
2116.9382324219
 20
1010.5631713867
 11
2109.5383300781
 21
1010.5631713867
  0
CIRCLE
  8
DOGSV_6
  6
DOGSL_1
 62
     1
 10
2113.1381835938
 20
1010.5631713867
 40
2.7799999714
  0
LINE
  8
DOGSV_6
  6
DOGSL_1
 62
     1
 10
2111.5166015625
 20
1012.8213500977
 11
2115.3962402344
 21
1008.9415893555
  0
LINE
  8
DOGSV_6
  6
DOGSL_1
 62
     1
 10
2110.8803710938
 20
1012.1848144531
 11
2114.759765625
 21
1008.3051757812
  0
LINE
  8
DOGSV_6
  6
DOGSL_1
 62
     1
 10
2113.1381835938
 20
990.0859985352
 11
2113.1381835938
 21
976.5631713867
  0
LINE
  8
DOGSV_6
  6
DOGSL_1
 62
     1
 10
2113.1381835938
 20
1014.6451416016
 11
2113.1381835938
 21
997.7631835938
  0
ARC
  8
DOGSV_6
  6
DOGSL_1
 62
     1
 10
2113.1381835938
 20
999.8452148438
 40
2.729984045
 50
183.048828125
 51
263.190246582
  0
ARC
  8
DOGSV_6
  6
DOGSL_1
 62
     1
 10
2113.1381835938
 20
1010.5632324219
 40
3.2999911308
 50
356.9511108398
 51
48.6463928223
  0
ARC
  8
DOGSV_6
  6
DOGSL_1
 62
     1
 10
2113.1381835938
 20
988.6331787109
 40
2.7300000191
 50
0.0
 51
103.1903457642
  0
LINE
  8
DOGSV_6
  6
DOGSL_1
 62
     1
 10
2108.1381835938
 20
1014.5631713867
 11
2108.1381835938
 21
950.7631835938
  0
ARC
  8
DOGSV_6
  6
DOGSL_1
 62
     1
 10
2112.1381835938
 20
1014.5631713867
 40
4.0
 50
90.0
 51
180.0
  0
LINE
  8
DOGSV_6
  6
DOGSL_1
 62
     1
 10
2113.1381835938
 20
968.9631958008
 11
2113.1381835938
 21
952.4921875
  0
ARC
  8
DOGSV_6
  6
DOGSL_1
 62
     1
 10
2112.1381835938
 20
950.7631835938
 40
4.0
 50
180.0
 51
270.0
  0
LINE
  8
DOGSV_6
  6
DOGSL_1
 62
     1
 10
2120.6381835938
 20
946.7631835938
 11
2112.1381835938
 21
946.7631835938
  0
LINE
  8
DOGSV_6
  6
DOGSL_1
 62
     1
 10
2139.5363769531
 20
1012.6632080078
 11
2139.5363769531
 21
1002.2741699219
  0
LINE
  8
DOGSV_6
  6
DOGSL_1
 62
     1
 10
2139.5363769531
 20
999.9631958008
 11
2139.5363769531
 21
979.9631958008
  0
LINE
  8
DOGSV_6
  6
DOGSL_1
 62
     1
 10
2139.5363769531
 20
978.3632202148
 11
2139.5363769531
 21
958.3632202148
  0
LINE
  8
DOGSV_6
  6
DOGSL_1
 62
     1
 10
2139.5363769531
 20
956.7631835938
 11
2139.5363769531
 21
955.2131958008
  0
LINE
  8
DOGSV_6
  6
DOGSL_1
 62
     1
 10
2123.3361816406
 20
956.7631835938
 11
2123.3361816406
 21
958.3632202148
  0
LINE
  8
DOGSV_6
  6
DOGSL_1
 62
     1
 10
2127.0461425781
 20
955.8239135742
 11
2126.8837890625
 21
955.7067871094
  0
LINE
  8
DOGSV_6
  6
DOGSL_1
 62
     1
 10
2126.6799316406
 20
956.3315429688
 11
2127.0461425781
 21
955.8239135742
  0
ARC
  8
DOGSV_6
  6
DOGSL_1
 62
     1
 10
2125.8686523438
 20
955.7465209961
 40
1.0000702143
 50
35.8000831604
 51
123.755645752
  0
LINE
  8
DOGSV_6
  6
DOGSL_1
 62
     1
 10
2123.3049316406
 20
955.2357788086
 11
2125.3132324219
 21
956.5780029297
  0
ARC
  8
DOGSV_6
  6
DOGSL_1
 62
     1
 10
2123.1381835938
 20
955.4852294922
 40
0.3000000119
 50
180.0
 51
303.7514953613
  0
LINE
  8
DOGSV_6
  6
DOGSL_1
 62
     1
 10
2122.8383789062
 20
962.3431396484
 11
2122.8383789062
 21
955.4852294922
  0
ARC
  8
DOGSV_6
  6
DOGSL_1
 62
     1
 10
2123.6381835938
 20
962.3431396484
 40
0.8000000119
 50
90.0
 51
180.0
  0
LINE
  8
DOGSV_6
  6
DOGSL_1
 62
     1
 10
2126.2082519531
 20
963.1431274414
 11
2123.6381835938
 21
963.1431274414
  0
ARC
  8
DOGSV_6
  6
DOGSL_1
 62
     1
 10
2126.2082519531
 20
962.3431396484
 40
0.8000000119
 50
0.0
 51
90.0
  0
LINE
  8
DOGSV_6
  6
DOGSL_1
 62
     1
 10
2127.0083007812
 20
962.3431396484
 11
2127.0083007812
 21
959.3632202148
  0
ARC
  8
DOGSV_6
  6
DOGSL_1
 62
     1
 10
2126.2082519531
 20
959.3632202148
 40
0.8000000119
 50
270.0
 51
360.0
  0
LINE
  8
DOGSV_6
  6
DOGSL_1
 62
     1
 10
2126.2082519531
 20
958.5631103516
 11
2125.1589355469
 21
958.5631103516
  0
LINE
  8
DOGSV_6
  6
DOGSL_1
 62
     1
 10
2125.1589355469
 20
958.5631103516
 11
2125.1589355469
 21
958.3632202148
  0
LINE
  8
DOGSV_6
  6
DOGSL_1
 62
     1
 10
2126.2082519531
 20
958.3632202148
 11
2125.1589355469
 21
958.3632202148
  0
ARC
  8
DOGSV_6
  6
DOGSL_1
 62
     1
 10
2126.2082519531
 20
959.3632202148
 40
1.0
 50
270.0
 51
360.0
  0
LINE
  8
DOGSV_6
  6
DOGSL_1
 62
     1
 10
2127.2082519531
 20
962.3431396484
 11
2127.2082519531
 21
959.3632202148
  0
ARC
  8
DOGSV_6
  6
DOGSL_1
 62
     1
 10
2126.2082519531
 20
962.3431396484
 40
1.0
 50
0.0
 51
90.0
  0
LINE
  8
DOGSV_6
  6
DOGSL_1
 62
     1
 10
2126.2082519531
 20
963.3431396484
 11
2123.6381835938
 21
963.3431396484
  0
ARC
  8
DOGSV_6
  6
DOGSL_1
 62
     1
 10
2123.6381835938
 20
962.3431396484
 40
1.0
 50
90.0
 51
180.0
  0
LINE
  8
DOGSV_6
  6
DOGSL_1
 62
     1
 10
2126.517578125
 20
956.2145996094
 11
2126.8837890625
 21
955.7067871094
  0
ARC
  8
DOGSV_6
  6
DOGSL_1
 62
     1
 10
2125.8688964844
 20
955.7465820312
 40
0.799978435
 50
35.8041038513
 51
123.763885498
  0
LINE
  8
DOGSV_6
  6
DOGSL_1
 62
     1
 10
2123.416015625
 20
955.069519043
 11
2125.4243164062
 21
956.4117431641
  0
ARC
  8
DOGSV_6
  6
DOGSL_1
 62
     1
 10
2123.1381835938
 20
955.4852294922
 40
0.5
 50
180.0
 51
303.753112793
  0
LINE
  8
DOGSV_6
  6
DOGSL_1
 62
     1
 10
2122.8381347656
 20
963.3081054688
 11
2123.3381347656
 21
963.3081054688
  0
LINE
  8
DOGSV_6
  6
DOGSL_1
 62
     1
 10
2122.8381347656
 20
958.658203125
 11
2123.3381347656
 21
958.658203125
  0
LINE
  8
DOGSV_6
  6
DOGSL_1
 62
     1
 10
2123.3381347656
 20
958.8630981445
 11
2123.7980957031
 21
958.8630981445
  0
LINE
  8
DOGSV_6
  6
DOGSL_1
 62
     1
 10
2123.3381347656
 20
963.1031494141
 11
2123.7980957031
 21
963.1031494141
  0
LINE
  8
DOGSV_6
  6
DOGSL_1
 62
     1
 10
2123.3381347656
 20
963.1031494141
 11
2123.3381347656
 21
958.658203125
  0
LINE
  8
DOGSV_6
  6
DOGSL_1
 62
     1
 10
2124.6879882812
 20
962.2131958008
 11
2124.6879882812
 21
959.753112793
  0
ARC
  8
DOGSV_6
  6
DOGSL_1
 62
     1
 10
2123.7980957031
 20
959.753112793
 40
0.8899999857
 50
270.0
 51
360.0
  0
ARC
  8
DOGSV_6
  6
DOGSL_1
 62
     1
 10
2123.7980957031
 20
962.2131958008
 40
0.8899999857
 50
0.0
 51
90.0
  0
LINE
  8
DOGSV_6
  6
DOGSL_1
 62
     1
 10
2122.8381347656
 20
963.3081054688
 11
2122.8381347656
 21
962.9631958008
  0
LINE
  8
DOGSV_6
  6
DOGSL_1
 62
     1
 10
2126.2082519531
 20
960.9830932617
 11
2119.4389648438
 21
960.9830932617
  0
LINE
  8
DOGSV_6
  6
DOGSL_1
 62
     1
 10
2123.3361816406
 20
978.3632202148
 11
2123.3361816406
 21
979.9631958008
  0
LINE
  8
DOGSV_6
  6
DOGSL_1
 62
     1
 10
2127.0461425781
 20
977.4239501953
 11
2126.8837890625
 21
977.3068237305
  0
LINE
  8
DOGSV_6
  6
DOGSL_1
 62
     1
 10
2126.6799316406
 20
977.9315185547
 11
2127.0461425781
 21
977.4239501953
  0
ARC
  8
DOGSV_6
  6
DOGSL_1
 62
     1
 10
2125.8686523438
 20
977.346496582
 40
1.0000702143
 50
35.8000831604
 51
123.755645752
  0
LINE
  8
DOGSV_6
  6
DOGSL_1
 62
     1
 10
2123.3049316406
 20
976.8358154297
 11
2125.3132324219
 21
978.1779785156
  0
ARC
  8
DOGSV_6
  6
DOGSL_1
 62
     1
 10
2123.1381835938
 20
977.0852050781
 40
0.3000000119
 50
180.0
 51
303.7514953613
  0
LINE
  8
DOGSV_6
  6
DOGSL_1
 62
     1
 10
2122.8383789062
 20
983.9431152344
 11
2122.8383789062
 21
977.0852050781
  0
ARC
  8
DOGSV_6
  6
DOGSL_1
 62
     1
 10
2123.6381835938
 20
983.9431152344
 40
0.8000000119
 50
90.0
 51
180.0
  0
LINE
  8
DOGSV_6
  6
DOGSL_1
 62
     1
 10
2126.2082519531
 20
984.7431030273
 11
2123.6381835938
 21
984.7431030273
  0
ARC
  8
DOGSV_6
  6
DOGSL_1
 62
     1
 10
2126.2082519531
 20
983.9431152344
 40
0.8000000119
 50
0.0
 51
90.0
  0
LINE
  8
DOGSV_6
  6
DOGSL_1
 62
     1
 10
2127.0083007812
 20
983.9431152344
 11
2127.0083007812
 21
980.9631958008
  0
ARC
  8
DOGSV_6
  6
DOGSL_1
 62
     1
 10
2126.2082519531
 20
980.9631958008
 40
0.8000000119
 50
270.0
 51
360.0
  0
LINE
  8
DOGSV_6
  6
DOGSL_1
 62
     1
 10
2126.2082519531
 20
980.1631469727
 11
2125.1589355469
 21
980.1631469727
  0
LINE
  8
DOGSV_6
  6
DOGSL_1
 62
     1
 10
2125.1589355469
 20
980.1631469727
 11
2125.1589355469
 21
979.9631958008
  0
LINE
  8
DOGSV_6
  6
DOGSL_1
 62
     1
 10
2126.2082519531
 20
979.9631958008
 11
2125.1589355469
 21
979.9631958008
  0
ARC
  8
DOGSV_6
  6
DOGSL_1
 62
     1
 10
2126.2082519531
 20
980.9631958008
 40
1.0
 50
270.0
 51
360.0
  0
LINE
  8
DOGSV_6
  6
DOGSL_1
 62
     1
 10
2127.2082519531
 20
983.9431152344
 11
2127.2082519531
 21
980.9631958008
  0
ARC
  8
DOGSV_6
  6
DOGSL_1
 62
     1
 10
2126.2082519531
 20
983.9431152344
 40
1.0
 50
0.0
 51
90.0
  0
LINE
  8
DOGSV_6
  6
DOGSL_1
 62
     1
 10
2126.2082519531
 20
984.9431152344
 11
2123.6381835938
 21
984.9431152344
  0
ARC
  8
DOGSV_6
  6
DOGSL_1
 62
     1
 10
2123.6381835938
 20
983.9431152344
 40
1.0
 50
90.0
 51
180.0
  0
LINE
  8
DOGSV_6
  6
DOGSL_1
 62
     1
 10
2126.517578125
 20
977.8145751953
 11
2126.8837890625
 21
977.3068237305
  0
ARC
  8
DOGSV_6
  6
DOGSL_1
 62
     1
 10
2125.8688964844
 20
977.3466186523
 40
0.799978435
 50
35.8041038513
 51
123.763885498
  0
LINE
  8
DOGSV_6
  6
DOGSL_1
 62
     1
 10
2123.416015625
 20
976.6694946289
 11
2125.4243164062
 21
978.01171875
  0
ARC
  8
DOGSV_6
  6
DOGSL_1
 62
     1
 10
2123.1381835938
 20
977.0852050781
 40
0.5
 50
180.0
 51
303.753112793
  0
LINE
  8
DOGSV_6
  6
DOGSL_1
 62
     1
 10
2122.8381347656
 20
984.9081420898
 11
2123.3381347656
 21
984.9081420898
  0
LINE
  8
DOGSV_6
  6
DOGSL_1
 62
     1
 10
2122.8381347656
 20
980.2581787109
 11
2123.3381347656
 21
980.2581787109
  0
LINE
  8
DOGSV_6
  6
DOGSL_1
 62
     1
 10
2123.3381347656
 20
980.4631347656
 11
2123.7980957031
 21
980.4631347656
  0
LINE
  8
DOGSV_6
  6
DOGSL_1
 62
     1
 10
2123.3381347656
 20
984.703125
 11
2123.7980957031
 21
984.703125
  0
LINE
  8
DOGSV_6
  6
DOGSL_1
 62
     1
 10
2123.3381347656
 20
984.703125
 11
2123.3381347656
 21
980.2581787109
  0
LINE
  8
DOGSV_6
  6
DOGSL_1
 62
     1
 10
2124.6879882812
 20
983.8131713867
 11
2124.6879882812
 21
981.3531494141
  0
ARC
  8
DOGSV_6
  6
DOGSL_1
 62
     1
 10
2123.7980957031
 20
981.3531494141
 40
0.8899999857
 50
270.0
 51
360.0
  0
ARC
  8
DOGSV_6
  6
DOGSL_1
 62
     1
 10
2123.7980957031
 20
983.8131713867
 40
0.8899999857
 50
0.0
 51
90.0
  0
LINE
  8
DOGSV_6
  6
DOGSL_1
 62
     1
 10
2122.8381347656
 20
984.9081420898
 11
2122.8381347656
 21
984.5631713867
  0
LINE
  8
DOGSV_6
  6
DOGSL_1
 62
     1
 10
2126.2082519531
 20
982.5831298828
 11
2119.4389648438
 21
982.5831298828
  0
LINE
  8
DOGSV_6
  6
DOGSL_1
 62
     1
 10
2122.6381835938
 20
954.7631835938
 11
2123.197265625
 21
954.7631835938
  0
LINE
  8
DOGSV_6
  6
DOGSL_1
 62
     1
 10
2123.197265625
 20
954.7631835938
 11
2123.197265625
 21
949.3222045898
  0
ARC
  8
DOGSV_6
  6
DOGSL_1
 62
     1
 10
2125.197265625
 20
949.3222045898
 40
2.0
 50
180.0
 51
270.0
  0
ARC
  8
DOGSV_6
  6
DOGSL_1
 62
     1
 10
2125.197265625
 20
949.3222045898
 40
2.5590000153
 50
180.0
 51
270.0
  0
LINE
  8
DOGSV_6
  6
DOGSL_1
 62
     1
 10
2122.6381835938
 20
946.7631835938
 11
2120.6381835938
 21
946.7631835938
  0
LINE
  8
DOGSV_6
  6
DOGSL_1
 62
     1
 10
2123.7053222656
 20
949.7131958008
 11
2123.7053222656
 21
953.8131713867
  0
LINE
  8
DOGSV_6
  6
DOGSL_1
 62
     1
 10
2125.9912109375
 20
950.5567016602
 11
2125.9912109375
 21
952.9696044922
  0
LINE
  8
DOGSV_6
  6
DOGSL_1
 62
     1
 10
2124.1416015625
 20
950.3192138672
 11
2125.9912109375
 21
950.5567016602
  0
LINE
  8
DOGSV_6
  6
DOGSL_1
 62
     1
 10
2127.8610839844
 20
951.7631835938
 11
2117.8610839844
 21
951.7631835938
  0
ARC
  8
DOGSV_6
  6
DOGSL_1
 62
     1
 10
2124.2053222656
 20
949.8233032227
 40
0.499981612
 50
97.30809021
 51
180.005859375
  0
ARC
  8
DOGSV_6
  6
DOGSL_1
 62
     1
 10
2124.2053222656
 20
953.703125
 40
0.5
 50
180.0
 51
262.6977844238
  0
LINE
  8
DOGSV_6
  6
DOGSL_1
 62
     1
 10
2124.1416015625
 20
953.2072143555
 11
2125.9912109375
 21
952.9696044922
  0
LINE
  8
DOGSV_6
  6
DOGSL_1
 62
     1
 10
2123.7053222656
 20
953.8131713867
 11
2123.197265625
 21
953.8131713867
  0
LINE
  8
DOGSV_6
  6
DOGSL_1
 62
     1
 10
2123.7053222656
 20
949.7131958008
 11
2123.197265625
 21
949.7131958008
  0
LINE
  8
DOGSV_6
  6
DOGSL_1
 62
     1
 10
2125.9912109375
 20
952.8483276367
 11
2126.7373046875
 21
952.8483276367
  0
LINE
  8
DOGSV_6
  6
DOGSL_1
 62
     1
 10
2125.9912109375
 20
952.5682983398
 11
2127.0170898438
 21
952.5682983398
  0
LINE
  8
DOGSV_6
  6
DOGSL_1
 62
     1
 10
2125.9912109375
 20
950.9583129883
 11
2127.0170898438
 21
950.9583129883
  0
LINE
  8
DOGSV_6
  6
DOGSL_1
 62
     1
 10
2125.9912109375
 20
950.6783447266
 11
2126.7373046875
 21
950.6783447266
  0
LINE
  8
DOGSV_6
  6
DOGSL_1
 62
     1
 10
2127.0170898438
 20
952.5682983398
 11
2127.0170898438
 21
950.9583129883
  0
LINE
  8
DOGSV_6
  6
DOGSL_1
 62
     1
 10
2127.0170898438
 20
952.5682983398
 11
2126.7373046875
 21
952.8483276367
  0
LINE
  8
DOGSV_6
  6
DOGSL_1
 62
     1
 10
2126.7373046875
 20
952.8483276367
 11
2126.7373046875
 21
950.6783447266
  0
LINE
  8
DOGSV_6
  6
DOGSL_1
 62
     1
 10
2127.0170898438
 20
950.9583129883
 11
2126.7373046875
 21
950.6783447266
  0
LINE
  8
DOGSV_6
  6
DOGSL_1
 62
     1
 10
2137.6018066406
 20
951.7631835938
 11
2147.0708007812
 21
951.7631835938
  0
LINE
  8
DOGSV_6
  6
DOGSL_1
 62
     1
 10
2142.3361816406
 20
954.3632202148
 11
2142.3361816406
 21
949.1632080078
  0
LINE
  8
DOGSV_6
  6
DOGSL_1
 62
     1
 10
2139.1613769531
 20
953.2562255859
 11
2139.1613769531
 21
950.2562255859
  0
LINE
  8
DOGSV_6
  6
DOGSL_1
 62
     1
 10
2145.5112304688
 20
953.2562255859
 11
2145.5112304688
 21
950.2562255859
  0
CIRCLE
  8
DOGSV_6
  6
DOGSL_1
 62
     1
 10
2139.1613769531
 20
951.7631835938
 40
0.8379999995
  0
CIRCLE
  8
DOGSV_6
  6
DOGSL_1
 62
     1
 10
2145.5112304688
 20
951.7631835938
 40
0.8379999995
  0
ARC
  8
DOGSV_6
  6
DOGSL_1
 62
     1
 10
2145.4931640625
 20
951.7631835938
 40
2.0499999523
 50
270.0
 51
90.0
  0
ARC
  8
DOGSV_6
  6
DOGSL_1
 62
     1
 10
2139.1791992188
 20
951.7631835938
 40
2.0499999523
 50
90.0
 51
270.0
  0
LINE
  8
DOGSV_6
  6
DOGSL_1
 62
     1
 10
2139.1791992188
 20
953.8131713867
 11
2145.4931640625
 21
953.8131713867
  0
LINE
  8
DOGSV_6
  6
DOGSL_1
 62
     1
 10
2139.1791992188
 20
949.7131958008
 11
2145.4931640625
 21
949.7131958008
  0
CIRCLE
  8
DOGSV_6
  6
DOGSL_1
 62
     1
 10
2142.3361816406
 20
951.7631835938
 40
0.8050000072
  0
ARC
  8
DOGSV_6
  6
DOGSL_1
 62
     1
 10
2142.3361816406
 20
951.7632446289
 40
1.0850193501
 50
227.8733673096
 51
134.3285522461
  0
CIRCLE
  8
DOGSV_6
  6
DOGSL_1
 62
     1
 10
2142.3361816406
 20
951.7631835938
 40
1.5
  0
LINE
  8
DOGSV_6
  6
DOGSL_1
 62
     1
 10
2172.8361816406
 20
1017.5631713867
 11
2178.1843261719
 21
1017.5631713867
  0
LINE
  8
DOGSV_6
  6
DOGSL_1
 62
     1
 10
2175.3361816406
 20
1019.4821777344
 11
2175.3361816406
 21
1015.1801757812
  0
ARC
  8
DOGSV_6
  6
DOGSL_1
 62
     1
 10
2175.3361816406
 20
1017.5632324219
 40
1.4100306034
 50
226.0953674316
 51
131.1315612793
  0
CIRCLE
  8
DOGSV_6
  6
DOGSL_1
 62
     1
 10
2175.3361816406
 20
1017.5631713867
 40
1.0199999809
  0
LINE
  8
DOGSV_6
  6
DOGSL_1
 62
     1
 10
2172.3361816406
 20
1014.5631713867
 11
2172.3361816406
 21
1015.5631713867
  0
LINE
  8
DOGSV_6
  6
DOGSL_1
 62
     1
 10
2178.3361816406
 20
1015.5631713867
 11
2178.3361816406
 21
1014.5631713867
  0
LINE
  8
DOGSV_6
  6
DOGSL_1
 62
     1
 10
2172.3361816406
 20
1014.5631713867
 11
2178.3361816406
 21
1014.5631713867
  0
ARC
  8
DOGSV_6
  6
DOGSL_1
 62
     1
 10
2181.3361816406
 20
1015.5631713867
 40
3.0
 50
90.0
 51
180.0
  0
ARC
  8
DOGSV_6
  6
DOGSL_1
 62
     1
 10
2169.3361816406
 20
1015.5631713867
 40
3.0
 50
0.0
 51
90.0
  0
LINE
  8
DOGSV_6
  6
DOGSL_1
 62
     1
 10
2170.6018066406
 20
951.7631835938
 11
2180.0708007812
 21
951.7631835938
  0
LINE
  8
DOGSV_6
  6
DOGSL_1
 62
     1
 10
2175.3361816406
 20
954.3632202148
 11
2175.3361816406
 21
949.1632080078
  0
LINE
  8
DOGSV_6
  6
DOGSL_1
 62
     1
 10
2172.1613769531
 20
953.2562255859
 11
2172.1613769531
 21
950.2562255859
  0
LINE
  8
DOGSV_6
  6
DOGSL_1
 62
     1
 10
2178.5112304688
 20
953.2562255859
 11
2178.5112304688
 21
950.2562255859
  0
CIRCLE
  8
DOGSV_6
  6
DOGSL_1
 62
     1
 10
2172.1613769531
 20
951.7631835938
 40
0.8379999995
  0
CIRCLE
  8
DOGSV_6
  6
DOGSL_1
 62
     1
 10
2178.5112304688
 20
951.7631835938
 40
0.8379999995
  0
ARC
  8
DOGSV_6
  6
DOGSL_1
 62
     1
 10
2178.4931640625
 20
951.7631835938
 40
2.0499999523
 50
270.0
 51
90.0
  0
ARC
  8
DOGSV_6
  6
DOGSL_1
 62
     1
 10
2172.1791992188
 20
951.7631835938
 40
2.0499999523
 50
90.0
 51
270.0
  0
LINE
  8
DOGSV_6
  6
DOGSL_1
 62
     1
 10
2172.1791992188
 20
953.8131713867
 11
2178.4931640625
 21
953.8131713867
  0
LINE
  8
DOGSV_6
  6
DOGSL_1
 62
     1
 10
2172.1791992188
 20
949.7131958008
 11
2178.4931640625
 21
949.7131958008
  0
CIRCLE
  8
DOGSV_6
  6
DOGSL_1
 62
     1
 10
2175.3361816406
 20
951.7631835938
 40
0.8050000072
  0
ARC
  8
DOGSV_6
  6
DOGSL_1
 62
     1
 10
2175.3361816406
 20
951.7632446289
 40
1.0850193501
 50
227.8733673096
 51
134.3285522461
  0
CIRCLE
  8
DOGSV_6
  6
DOGSL_1
 62
     1
 10
2175.3361816406
 20
951.7631835938
 40
1.5
  0
LINE
  8
DOGSV_6
  6
DOGSL_1
 62
     1
 10
2068.3464355469
 20
1023.8743896484
 11
2068.3464355469
 21
1094.8120117188
  0
LINE
  8
DOGSV_6
  6
DOGSL_3
 62
     3
 10
2107.0942382812
 20
1059.7631835938
 11
2064.880859375
 21
1059.7631835938
  0
LINE
  8
DOGSV_6
  6
DOGSL_1
 62
     1
 10
2208.3361816406
 20
992.3483276367
 11
2208.3361816406
 21
994.1068115234
  0
LINE
  8
DOGSV_6
  6
DOGSL_1
 62
     1
 10
2208.3361816406
 20
955.7631835938
 11
2208.3361816406
 21
969.2276000977
  0
LINE
  8
DOGSV_6
  6
DOGSL_1
 62
     1
 10
2205.8361816406
 20
1017.5631713867
 11
2211.1843261719
 21
1017.5631713867
  0
LINE
  8
DOGSV_6
  6
DOGSL_1
 62
     1
 10
2208.3361816406
 20
1019.4821777344
 11
2208.3361816406
 21
1015.1801757812
  0
ARC
  8
DOGSV_6
  6
DOGSL_1
 62
     1
 10
2208.3361816406
 20
1017.5632324219
 40
1.4100306034
 50
226.0953674316
 51
131.1315612793
  0
CIRCLE
  8
DOGSV_6
  6
DOGSL_1
 62
     1
 10
2208.3361816406
 20
1017.5631713867
 40
1.0199999809
  0
LINE
  8
DOGSV_6
  6
DOGSL_1
 62
     1
 10
2205.3361816406
 20
1014.5631713867
 11
2205.3361816406
 21
1015.5631713867
  0
LINE
  8
DOGSV_6
  6
DOGSL_1
 62
     1
 10
2211.3361816406
 20
1015.5631713867
 11
2211.3361816406
 21
1014.5631713867
  0
LINE
  8
DOGSV_6
  6
DOGSL_1
 62
     1
 10
2205.3361816406
 20
1014.5631713867
 11
2211.3361816406
 21
1014.5631713867
  0
ARC
  8
DOGSV_6
  6
DOGSL_1
 62
     1
 10
2214.3361816406
 20
1015.5631713867
 40
3.0
 50
90.0
 51
180.0
  0
ARC
  8
DOGSV_6
  6
DOGSL_1
 62
     1
 10
2202.3361816406
 20
1015.5631713867
 40
3.0
 50
0.0
 51
90.0
  0
LINE
  8
DOGSV_6
  6
DOGSL_1
 62
     1
 10
2203.6018066406
 20
951.7631835938
 11
2213.0708007812
 21
951.7631835938
  0
LINE
  8
DOGSV_6
  6
DOGSL_1
 62
     1
 10
2208.3361816406
 20
954.3632202148
 11
2208.3361816406
 21
949.1632080078
  0
LINE
  8
DOGSV_6
  6
DOGSL_1
 62
     1
 10
2205.1613769531
 20
953.2562255859
 11
2205.1613769531
 21
950.2562255859
  0
LINE
  8
DOGSV_6
  6
DOGSL_1
 62
     1
 10
2211.5112304688
 20
953.2562255859
 11
2211.5112304688
 21
950.2562255859
  0
CIRCLE
  8
DOGSV_6
  6
DOGSL_1
 62
     1
 10
2205.1613769531
 20
951.7631835938
 40
0.8379999995
  0
CIRCLE
  8
DOGSV_6
  6
DOGSL_1
 62
     1
 10
2211.5112304688
 20
951.7631835938
 40
0.8379999995
  0
ARC
  8
DOGSV_6
  6
DOGSL_1
 62
     1
 10
2211.4931640625
 20
951.7631835938
 40
2.0499999523
 50
270.0
 51
90.0
  0
ARC
  8
DOGSV_6
  6
DOGSL_1
 62
     1
 10
2205.1791992188
 20
951.7631835938
 40
2.0499999523
 50
90.0
 51
270.0
  0
LINE
  8
DOGSV_6
  6
DOGSL_1
 62
     1
 10
2205.1791992188
 20
953.8131713867
 11
2211.4931640625
 21
953.8131713867
  0
LINE
  8
DOGSV_6
  6
DOGSL_1
 62
     1
 10
2205.1791992188
 20
949.7131958008
 11
2211.4931640625
 21
949.7131958008
  0
CIRCLE
  8
DOGSV_6
  6
DOGSL_1
 62
     1
 10
2208.3361816406
 20
951.7631835938
 40
0.8050000072
  0
ARC
  8
DOGSV_6
  6
DOGSL_1
 62
     1
 10
2208.3361816406
 20
951.7632446289
 40
1.0850193501
 50
227.8733673096
 51
134.3285522461
  0
CIRCLE
  8
DOGSV_6
  6
DOGSL_1
 62
     1
 10
2208.3361816406
 20
951.7631835938
 40
1.5
  0
LINE
  8
DOGSV_6
  6
DOGSL_1
 62
     1
 10
2208.3361816406
 20
948.1632080078
 11
2208.3361816406
 21
943.2697753906
  0
LINE
  8
DOGSV_6
  6
DOGSL_1
 62
     1
 10
2208.3361816406
 20
941.9855957031
 11
2208.3361816406
 21
940.7631835938
  0
LINE
  8
DOGSV_6
  6
DOGSL_1
 62
     1
 10
2208.3361816406
 20
974.5407714844
 11
2208.3361816406
 21
989.7105102539
  0
LINE
  8
DOGSV_6
  6
DOGSL_1
 62
     1
 10
2208.3361816406
 20
971.2199707031
 11
2208.3361816406
 21
972.7368164062
  0
LINE
  8
DOGSV_6
  6
DOGSL_1
 62
     1
 10
2288.8989257812
 20
1633.2965087891
 11
2294.9831542969
 21
1506.4423828125
  0
LINE
  8
DOGSV_6
  6
DOGSL_1
 62
     1
 10
2290.12890625
 20
1550.7106933594
 11
2303.3137207031
 21
1551.3430175781
  0
LINE
  8
DOGSV_6
  6
DOGSL_1
 62
     1
 10
2288.3034667969
 20
1588.7668457031
 11
2301.48828125
 21
1589.3992919922
  0
LINE
  8
DOGSV_6
  6
DOGSL_1
 62
     1
 10
2291.9541015625
 20
1512.6544189453
 11
2305.1389160156
 21
1513.2867431641
  0
LINE
  8
DOGSV_6
  6
DOGSL_1
 62
     1
 10
2294.9831542969
 20
1506.4423828125
 11
2298.8508300781
 21
1506.6279296875
  0
LINE
  8
DOGSV_6
  6
DOGSL_1
 62
     1
 10
2302.8127441406
 20
1501.2114257812
 11
2303.1721191406
 21
1493.7200927734
  0
LINE
  8
DOGSV_6
  6
DOGSL_1
 62
     1
 10
2306.3125
 20
1490.8671875
 11
2318.2985839844
 21
1491.4421386719
  0
LINE
  8
DOGSV_6
  6
DOGSL_1
 62
     1
 10
2306.3603515625
 20
1489.8684082031
 11
2316.3488769531
 21
1490.3475341797
  0
ARC
  8
DOGSV_6
  6
DOGSL_1
 62
     1
 10
2306.5041503906
 20
1486.8718261719
 40
3.00000453
 50
92.7458953857
 51
182.7458953857
  0
ARC
  8
DOGSV_6
  6
DOGSL_1
 62
     1
 10
2306.1687011719
 20
1493.8637695312
 40
3.00000453
 50
182.745880127
 51
272.745880127
  0
LINE
  8
DOGSV_6
  6
DOGSL_1
 62
     1
 10
2316.3488769531
 20
1490.3475341797
 11
2316.3010253906
 21
1491.3463134766
  0
LINE
  8
DOGSV_6
  6
DOGSL_1
 62
     1
 10
2301.8139648438
 20
1501.1635742188
 11
2302.8127441406
 21
1501.2114257812
  0
ARC
  8
DOGSV_6
  6
DOGSL_1
 62
     1
 10
2302.1245117188
 20
1496.6733398438
 40
2.9369072914
 50
290.6902160645
 51
74.7997055054
  0
LINE
  8
DOGSV_6
  6
DOGSL_1
 62
     1
 10
2297.4614257812
 20
1496.4495849609
 11
2306.599609375
 21
1496.8879394531
  0
LINE
  8
DOGSV_6
  6
DOGSL_1
 62
     1
 10
2301.97265625
 20
1497.8572998047
 11
2299.9748535156
 21
1497.7614746094
  0
LINE
  8
DOGSV_6
  6
DOGSL_1
 62
     1
 10
2302.0866699219
 20
1495.4801025391
 11
2300.0888671875
 21
1495.3842773438
  0
LINE
  8
DOGSV_6
  6
DOGSL_1
 62
     1
 10
2266.0534667969
 20
1475.5208740234
 11
2265.2868652344
 21
1491.5025634766
  0
LINE
  8
DOGSV_6
  6
DOGSL_1
 62
     1
 10
2293.8876953125
 20
1484.8651123047
 11
2299.5932617188
 21
1491.1456298828
  0
LINE
  8
DOGSV_6
  6
DOGSL_1
 62
     1
 10
2318.2985839844
 20
1491.4421386719
 11
2321.4389648438
 21
1488.5893554688
  0
LINE
  8
DOGSV_6
  6
DOGSL_1
 62
     1
 10
2284.1594238281
 20
1474.7874755859
 11
2284.0827636719
 21
1476.3856201172
  0
LINE
  8
DOGSV_6
  6
DOGSL_1
 62
     1
 10
2248.4384765625
 20
1472.28125
 11
2248.8125
 21
1464.4821777344
  0
LINE
  8
DOGSV_6
  6
DOGSL_1
 62
     1
 10
2251.4729003906
 20
1467.0416259766
 11
2245.9191894531
 21
1466.7752685547
  0
LINE
  8
DOGSV_6
  6
DOGSL_1
 62
     1
 10
2250.4870605469
 20
1465.2623291016
 11
2247.0710449219
 21
1465.0985107422
  0
LINE
  8
DOGSV_6
  6
DOGSL_1
 62
     1
 10
2251.4509277344
 20
1467.5010986328
 11
2251.5046386719
 21
1466.3823242188
  0
LINE
  8
DOGSV_6
  6
DOGSL_1
 62
     1
 10
2245.8972167969
 20
1467.2347412109
 11
2245.9509277344
 21
1466.1159667969
  0
ARC
  8
DOGSV_6
  6
DOGSL_1
 62
     1
 10
2247.0197753906
 20
1466.1672363281
 40
1.069989562
 50
182.7469787598
 51
272.7469787598
  0
ARC
  8
DOGSV_6
  6
DOGSL_1
 62
     1
 10
2250.4357910156
 20
1466.3310546875
 40
1.069989562
 50
272.7470092773
 51
2.7469923496
  0
LINE
  8
DOGSV_6
  6
DOGSL_1
 62
     1
 10
2281.4006347656
 20
1473.8621826172
 11
2281.7746582031
 21
1466.0632324219
  0
LINE
  8
DOGSV_6
  6
DOGSL_1
 62
     1
 10
2284.4350585938
 20
1468.6225585938
 11
2278.8813476562
 21
1468.3562011719
  0
LINE
  8
DOGSV_6
  6
DOGSL_1
 62
     1
 10
2283.44921875
 20
1466.8432617188
 11
2280.0329589844
 21
1466.6794433594
  0
LINE
  8
DOGSV_6
  6
DOGSL_1
 62
     1
 10
2284.4128417969
 20
1469.08203125
 11
2284.4665527344
 21
1467.9633789062
  0
LINE
  8
DOGSV_6
  6
DOGSL_1
 62
     1
 10
2278.859375
 20
1468.8156738281
 11
2278.9130859375
 21
1467.6968994141
  0
ARC
  8
DOGSV_6
  6
DOGSL_1
 62
     1
 10
2279.9816894531
 20
1467.7482910156
 40
1.069989562
 50
182.7469787598
 51
272.7469787598
  0
ARC
  8
DOGSV_6
  6
DOGSL_1
 62
     1
 10
2283.3979492188
 20
1467.912109375
 40
1.069989562
 50
272.7470092773
 51
2.7469923496
  0
LINE
  8
DOGSV_6
  6
DOGSL_1
 62
     1
 10
2307.22265625
 20
1471.8890380859
 11
2317.2111816406
 21
1472.3681640625
  0
LINE
  8
DOGSV_6
  6
DOGSL_1
 62
     1
 10
2303.2751464844
 20
1470.6986083984
 11
2319.2568359375
 21
1471.4650878906
  0
CIRCLE
  8
DOGSV_6
  6
DOGSL_1
 62
     1
 10
2312.7846679688
 20
1481.1661376953
 40
2.249984026
  0
ARC
  8
DOGSV_6
  6
DOGSL_1
 62
     1
 10
2312.7846679688
 20
1481.1661376953
 40
6.0000300407
 50
267.2354736328
 51
236.5654602051
  0
LINE
  8
DOGSV_6
  6
DOGSL_1
 62
     1
 10
2303.5075683594
 20
1486.7281494141
 11
2304.0825195312
 21
1474.7418212891
  0
ARC
  8
DOGSV_6
  6
DOGSL_1
 62
     1
 10
2307.0788574219
 20
1474.8856201172
 40
3.00000453
 50
182.745880127
 51
272.745880127
  0
LINE
  8
DOGSV_6
  6
DOGSL_1
 62
     1
 10
2319.2568359375
 20
1471.4650878906
 11
2322.1096191406
 21
1474.6053466797
  0
LINE
  8
DOGSV_6
  6
DOGSL_1
 62
     1
 10
2313.5993652344
 20
1470.021484375
 11
2308.0458984375
 21
1469.7550048828
  0
LINE
  8
DOGSV_6
  6
DOGSL_1
 62
     1
 10
2312.6135253906
 20
1468.2421875
 11
2309.1975097656
 21
1468.0782470703
  0
LINE
  8
DOGSV_6
  6
DOGSL_1
 62
     1
 10
2313.5773925781
 20
1470.4808349609
 11
2313.6311035156
 21
1469.3621826172
  0
LINE
  8
DOGSV_6
  6
DOGSL_1
 62
     1
 10
2308.0239257812
 20
1470.2144775391
 11
2308.0773925781
 21
1469.0958251953
  0
ARC
  8
DOGSV_6
  6
DOGSL_1
 62
     1
 10
2309.1462402344
 20
1469.1470947266
 40
1.069989562
 50
182.7469787598
 51
272.7469787598
  0
ARC
  8
DOGSV_6
  6
DOGSL_1
 62
     1
 10
2312.5622558594
 20
1469.3109130859
 40
1.069989562
 50
272.7470092773
 51
2.7469923496
  0
LINE
  8
DOGSV_6
  6
DOGSL_1
 62
     1
 10
2311.5373535156
 20
1476.2797851562
 11
2311.5793457031
 21
1475.4018554688
  0
LINE
  8
DOGSV_6
  6
DOGSL_1
 62
     1
 10
2309.4997558594
 20
1476.1821289062
 11
2309.5417480469
 21
1475.3040771484
  0
LINE
  8
DOGSV_6
  6
DOGSL_1
 62
     1
 10
2309.1286621094
 20
1475.7739257812
 11
2309.1520996094
 21
1475.2854003906
  0
LINE
  8
DOGSV_6
  6
DOGSL_1
 62
     1
 10
2311.9455566406
 20
1475.9090576172
 11
2311.9689941406
 21
1475.4205322266
  0
LINE
  8
DOGSV_6
  6
DOGSL_1
 62
     1
 10
2311.5373535156
 20
1476.2797851562
 11
2309.4997558594
 21
1476.1821289062
  0
LINE
  8
DOGSV_6
  6
DOGSL_1
 62
     1
 10
2311.9455566406
 20
1475.9090576172
 11
2309.1286621094
 21
1475.7739257812
  0
LINE
  8
DOGSV_6
  6
DOGSL_1
 62
     1
 10
2311.5373535156
 20
1476.2797851562
 11
2311.9455566406
 21
1475.9090576172
  0
LINE
  8
DOGSV_6
  6
DOGSL_1
 62
     1
 10
2309.4997558594
 20
1476.1821289062
 11
2309.1286621094
 21
1475.7739257812
  0
LINE
  8
DOGSV_6
  6
DOGSL_1
 62
     1
 10
2307.3920898438
 20
1472.5329589844
 11
2313.984375
 21
1472.8491210938
  0
LINE
  8
DOGSV_6
  6
DOGSL_1
 62
     1
 10
2308.6628417969
 20
1475.2619628906
 11
2310.560546875
 21
1475.3529052734
  0
LINE
  8
DOGSV_6
  6
DOGSL_1
 62
     1
 10
2308.6628417969
 20
1475.2619628906
 11
2308.5754394531
 21
1473.046875
  0
ARC
  8
DOGSV_6
  6
DOGSL_1
 62
     1
 10
2308.0759277344
 20
1473.0662841797
 40
0.5000164509
 50
272.743927002
 51
357.7764282227
  0
LINE
  8
DOGSV_6
  6
DOGSL_1
 62
     1
 10
2312.4584960938
 20
1475.4439697266
 11
2310.560546875
 21
1475.3529052734
  0
LINE
  8
DOGSV_6
  6
DOGSL_1
 62
     1
 10
2312.4584960938
 20
1475.4439697266
 11
2312.7570800781
 21
1473.2474365234
  0
ARC
  8
DOGSV_6
  6
DOGSL_1
 62
     1
 10
2313.2526855469
 20
1473.3145751953
 40
0.5000143647
 50
187.7140808105
 51
272.7465820312
  0
LINE
  8
DOGSV_6
  6
DOGSL_1
 62
     1
 10
2313.984375
 20
1472.8491210938
 11
2314.0148925781
 21
1472.21484375
  0
LINE
  8
DOGSV_6
  6
DOGSL_1
 62
     1
 10
2307.3920898438
 20
1472.5329589844
 11
2307.4223632812
 21
1471.8986816406
  0
LINE
  8
DOGSV_6
  6
DOGSL_1
 62
     1
 10
2310.4802246094
 20
1477.0281982422
 11
2310.98046875
 21
1466.5964355469
  0
LINE
  8
DOGSV_6
  6
DOGSL_1
 62
     1
 10
2315.7607421875
 20
1471.2974853516
 11
2315.794921875
 21
1470.5872802734
  0
LINE
  8
DOGSV_6
  6
DOGSL_1
 62
     1
 10
2321.4389648438
 20
1488.5893554688
 11
2322.1096191406
 21
1474.6053466797
  0
LINE
  8
DOGSV_6
  6
DOGSL_1
 62
     1
 10
2317.2111816406
 20
1472.3681640625
 11
2317.2590332031
 21
1471.3692626953
  0
ARC
  8
DOGSV_6
  6
DOGSL_1
 62
     1
 10
2302.8911132812
 20
1480.6916503906
 40
2.9369072914
 50
290.6902160645
 51
74.7997055054
  0
LINE
  8
DOGSV_6
  6
DOGSL_1
 62
     1
 10
2312.3859863281
 20
1489.4794921875
 11
2313.1262207031
 21
1474.0443115234
  0
LINE
  8
DOGSV_6
  6
DOGSL_1
 62
     1
 10
2298.2280273438
 20
1480.4680175781
 11
2320.4025878906
 21
1481.5316162109
  0
LINE
  8
DOGSV_6
  6
DOGSL_1
 62
     1
 10
2302.7390136719
 20
1481.8757324219
 11
2300.7414550781
 21
1481.7799072266
  0
LINE
  8
DOGSV_6
  6
DOGSL_1
 62
     1
 10
2302.8530273438
 20
1479.4985351562
 11
2300.85546875
 21
1479.4025878906
  0
LINE
  8
DOGSV_6
  6
DOGSL_1
 62
     1
 10
2552.7045898438
 20
1605.6965332031
 11
2550.1994628906
 21
1603.5412597656
  0
LINE
  8
DOGSV_6
  6
DOGSL_1
 62
     1
 10
2552.5295410156
 20
1603.3663330078
 11
2550.3742675781
 21
1605.8714599609
  0
LINE
  8
DOGSV_6
  6
DOGSL_1
 62
     1
 10
2552.5295410156
 20
1603.3663330078
 11
2552.7045898438
 21
1605.6965332031
  0
LINE
  8
DOGSV_6
  6
DOGSL_1
 62
     1
 10
2552.7045898438
 20
1605.6965332031
 11
2550.3742675781
 21
1605.8714599609
  0
LINE
  8
DOGSV_6
  6
DOGSL_1
 62
     1
 10
2550.3742675781
 20
1605.8714599609
 11
2550.1994628906
 21
1603.5412597656
  0
LINE
  8
DOGSV_6
  6
DOGSL_1
 62
     1
 10
2552.5295410156
 20
1603.3663330078
 11
2550.1994628906
 21
1603.5412597656
  0
LINE
  8
DOGSV_6
  6
DOGSL_1
 62
     1
 10
2545.4501953125
 20
1603.8978271484
 11
2545.6252441406
 21
1606.2280273438
  0
LINE
  8
DOGSV_6
  6
DOGSL_1
 62
     1
 10
2545.4501953125
 20
1603.8978271484
 11
2543.1201171875
 21
1604.0727539062
  0
LINE
  8
DOGSV_6
  6
DOGSL_1
 62
     1
 10
2545.4501953125
 20
1603.8978271484
 11
2543.294921875
 21
1606.4029541016
  0
LINE
  8
DOGSV_6
  6
DOGSL_1
 62
     1
 10
2545.6252441406
 20
1606.2280273438
 11
2543.1201171875
 21
1604.0727539062
  0
LINE
  8
DOGSV_6
  6
DOGSL_1
 62
     1
 10
2545.26953125
 20
1601.4915771484
 11
2550.0187988281
 21
1601.1350097656
  0
LINE
  8
DOGSV_6
  6
DOGSL_1
 62
     1
 10
2536.9184570312
 20
1606.8817138672
 11
2559.0810546875
 21
1605.2177734375
  0
LINE
  8
DOGSV_6
  6
DOGSL_1
 62
     1
 10
2536.6806640625
 20
1603.7156982422
 11
2558.8432617188
 21
1602.0517578125
  0
LINE
  8
DOGSV_6
  6
DOGSL_1
 62
     1
 10
2576.2607421875
 20
1575.0845947266
 11
2576.0114746094
 21
1575.1032714844
  0
LINE
  8
DOGSV_6
  6
DOGSL_1
 62
     1
 10
2576.0114746094
 20
1575.1032714844
 11
2581.6267089844
 21
1649.8928222656
  0
LINE
  8
DOGSV_6
  6
DOGSL_1
 62
     1
 10
2574.5454101562
 20
1605.6638183594
 11
2573.0495605469
 21
1605.7761230469
  0
LINE
  8
DOGSV_6
  6
DOGSL_1
 62
     1
 10
2578.2849121094
 20
1605.3830566406
 11
2576.7890625
 21
1605.4953613281
  0
LINE
  8
DOGSV_6
  6
DOGSL_1
 62
     1
 10
2532.8725585938
 20
1604.9167480469
 11
2547.8303222656
 21
1603.7937011719
  0
LINE
  8
DOGSV_6
  6
DOGSL_1
 62
     1
 10
2534.51953125
 20
1626.8549804688
 11
2532.8725585938
 21
1604.9167480469
  0
LINE
  8
DOGSV_6
  6
DOGSL_1
 62
     1
 10
2572.7602539062
 20
1601.9219970703
 11
2547.8303222656
 21
1603.7937011719
  0
LINE
  8
DOGSV_6
  6
DOGSL_1
 62
     1
 10
2537.0971679688
 20
1609.2626953125
 11
2536.6806640625
 21
1603.7156982422
  0
LINE
  8
DOGSV_6
  6
DOGSL_1
 62
     1
 10
2553.470703125
 20
1605.6390380859
 11
2553.5314941406
 21
1606.4494628906
  0
LINE
  8
DOGSV_6
  6
DOGSL_1
 62
     1
 10
2296.0341796875
 20
1018.5631713867
 11
2306.0341796875
 21
1018.5631713867
  0
LINE
  8
DOGSV_6
  6
DOGSL_1
 62
     1
 10
2293.3361816406
 20
1001.5631713867
 11
2293.3361816406
 21
999.9631958008
  0
LINE
  8
DOGSV_6
  6
DOGSL_1
 62
     1
 10
2296.0341796875
 20
945.7631835938
 11
2315.0341796875
 21
945.7631835938
  0
LINE
  8
DOGSV_6
  6
DOGSL_1
 62
     1
 10
2241.3361816406
 20
953.6821899414
 11
2241.3361816406
 21
949.3801879883
  0
LINE
  8
DOGSV_6
  6
DOGSL_1
 62
     1
 10
2238.8361816406
 20
1017.5631713867
 11
2244.1843261719
 21
1017.5631713867
  0
LINE
  8
DOGSV_6
  6
DOGSL_1
 62
     1
 10
2241.3361816406
 20
1019.4821777344
 11
2241.3361816406
 21
1015.1801757812
  0
ARC
  8
DOGSV_6
  6
DOGSL_1
 62
     1
 10
2241.3361816406
 20
1017.5632324219
 40
1.4100306034
 50
226.0953674316
 51
131.1315612793
  0
CIRCLE
  8
DOGSV_6
  6
DOGSL_1
 62
     1
 10
2241.3361816406
 20
1017.5631713867
 40
1.0199999809
  0
LINE
  8
DOGSV_6
  6
DOGSL_1
 62
     1
 10
2238.3361816406
 20
1014.5631713867
 11
2238.3361816406
 21
1015.5631713867
  0
LINE
  8
DOGSV_6
  6
DOGSL_1
 62
     1
 10
2244.3361816406
 20
1015.5631713867
 11
2244.3361816406
 21
1014.5631713867
  0
LINE
  8
DOGSV_6
  6
DOGSL_1
 62
     1
 10
2238.3361816406
 20
1014.5631713867
 11
2244.3361816406
 21
1014.5631713867
  0
ARC
  8
DOGSV_6
  6
DOGSL_1
 62
     1
 10
2247.3361816406
 20
1015.5631713867
 40
3.0
 50
90.0
 51
180.0
  0
ARC
  8
DOGSV_6
  6
DOGSL_1
 62
     1
 10
2235.3361816406
 20
1015.5631713867
 40
3.0
 50
0.0
 51
90.0
  0
LINE
  8
DOGSV_6
  6
DOGSL_1
 62
     1
 10
2271.8361816406
 20
1017.5631713867
 11
2277.1843261719
 21
1017.5631713867
  0
LINE
  8
DOGSV_6
  6
DOGSL_1
 62
     1
 10
2274.3361816406
 20
1019.4821777344
 11
2274.3361816406
 21
1015.1801757812
  0
ARC
  8
DOGSV_6
  6
DOGSL_1
 62
     1
 10
2274.3361816406
 20
1017.5632324219
 40
1.4100306034
 50
226.0953674316
 51
131.1315612793
  0
CIRCLE
  8
DOGSV_6
  6
DOGSL_1
 62
     1
 10
2274.3361816406
 20
1017.5631713867
 40
1.0199999809
  0
LINE
  8
DOGSV_6
  6
DOGSL_1
 62
     1
 10
2271.3361816406
 20
1014.5631713867
 11
2271.3361816406
 21
1015.5631713867
  0
LINE
  8
DOGSV_6
  6
DOGSL_1
 62
     1
 10
2277.3361816406
 20
1015.5631713867
 11
2277.3361816406
 21
1014.5631713867
  0
LINE
  8
DOGSV_6
  6
DOGSL_1
 62
     1
 10
2271.3361816406
 20
1014.5631713867
 11
2277.3361816406
 21
1014.5631713867
  0
ARC
  8
DOGSV_6
  6
DOGSL_1
 62
     1
 10
2280.3361816406
 20
1015.5631713867
 40
3.0
 50
90.0
 51
180.0
  0
ARC
  8
DOGSV_6
  6
DOGSL_1
 62
     1
 10
2268.3361816406
 20
1015.5631713867
 40
3.0
 50
0.0
 51
90.0
  0
LINE
  8
DOGSV_6
  6
DOGSL_1
 62
     1
 10
2285.3361816406
 20
996.4631958008
 11
2285.3361816406
 21
999.9631958008
  0
LINE
  8
DOGSV_6
  6
DOGSL_1
 62
     1
 10
2292.0341796875
 20
996.4631958008
 11
2285.3361816406
 21
996.4631958008
  0
ARC
  8
DOGSV_6
  6
DOGSL_1
 62
     1
 10
2292.0341796875
 20
994.4631958008
 40
2.0
 50
0.0
 51
90.0
  0
LINE
  8
DOGSV_6
  6
DOGSL_1
 62
     1
 10
2289.3361816406
 20
1003.1632080078
 11
2289.3361816406
 21
993.7631835938
  0
LINE
  8
DOGSV_6
  6
DOGSL_1
 62
     1
 10
2294.0341796875
 20
999.9631958008
 11
2294.0341796875
 21
1018.5631713867
  0
LINE
  8
DOGSV_6
  6
DOGSL_1
 62
     1
 10
2294.0341796875
 20
946.7631835938
 11
2294.0341796875
 21
994.90234375
  0
LINE
  8
DOGSV_6
  6
DOGSL_1
 62
     1
 10
2315.0341796875
 20
950.2631835938
 11
2315.0341796875
 21
945.7631835938
  0
LINE
  8
DOGSV_6
  6
DOGSL_1
 62
     1
 10
2308.5341796875
 20
1014.5631713867
 11
2308.5341796875
 21
950.7631835938
  0
LINE
  8
DOGSV_6
  6
DOGSL_1
 62
     1
 10
2310.0341796875
 20
1014.5631713867
 11
2310.0341796875
 21
950.2631835938
  0
LINE
  8
DOGSV_6
  6
DOGSL_1
 62
     1
 10
2306.2604980469
 20
999.700012207
 11
2306.8295898438
 21
1010.3876953125
  0
ARC
  8
DOGSV_6
  6
DOGSL_1
 62
     1
 10
2303.5341796875
 20
1010.5632324219
 40
3.2999911308
 50
356.9511108398
 51
123.2519226074
  0
LINE
  8
DOGSV_6
  6
DOGSL_1
 62
     1
 10
2300.8081054688
 20
999.700012207
 11
2300.2387695312
 21
1010.3876953125
  0
ARC
  8
DOGSV_6
  6
DOGSL_1
 62
     1
 10
2303.5341796875
 20
999.8452148438
 40
2.729984045
 50
183.048828125
 51
258.0288696289
  0
LINE
  8
DOGSV_6
  6
DOGSL_1
 62
     1
 10
2306.2604980469
 20
967.4263916016
 11
2306.8295898438
 21
956.7387084961
  0
ARC
  8
DOGSV_6
  6
DOGSL_1
 62
     1
 10
2303.5341796875
 20
967.2811889648
 40
2.729984045
 50
3.0488359928
 51
176.951751709
  0
LINE
  8
DOGSV_6
  6
DOGSL_1
 62
     1
 10
2300.8081054688
 20
967.4263916016
 11
2300.2387695312
 21
956.7387084961
  0
ARC
  8
DOGSV_6
  6
DOGSL_1
 62
     1
 10
2303.5344238281
 20
956.5631713867
 40
3.2999911308
 50
176.9511108398
 51
3.0480957031
  0
LINE
  8
DOGSV_6
  6
DOGSL_1
 62
     1
 10
2301.3693847656
 20
961.7191772461
 11
2305.7492675781
 21
961.7191772461
  0
LINE
  8
DOGSV_6
  6
DOGSL_1
 62
     1
 10
2301.3693847656
 20
967.2811889648
 11
2305.7492675781
 21
967.2811889648
  0
LINE
  8
DOGSV_6
  6
DOGSL_1
 62
     1
 10
2301.3693847656
 20
1005.4072265625
 11
2305.7492675781
 21
1005.4072265625
  0
LINE
  8
DOGSV_6
  6
DOGSL_1
 62
     1
 10
2301.3693847656
 20
999.8452148438
 11
2305.7492675781
 21
999.8452148438
  0
ARC
  8
DOGSV_6
  6
DOGSL_1
 62
     1
 10
2304.5341796875
 20
1014.5631713867
 40
4.0
 50
0.0
 51
90.0
  0
ARC
  8
DOGSV_6
  6
DOGSL_1
 62
     1
 10
2306.0341796875
 20
1014.5631713867
 40
4.0
 50
0.0
 51
90.0
  0
LINE
  8
DOGSV_6
  6
DOGSL_1
 62
     1
 10
2306.2641601562
 20
978.4932250977
 11
2306.2641601562
 21
981.7092285156
  0
ARC
  8
DOGSV_6
  6
DOGSL_1
 62
     1
 10
2303.5341796875
 20
983.5631103516
 40
3.299987793
 50
325.8199157715
 51
34.1806945801
  0
LINE
  8
DOGSV_6
  6
DOGSL_1
 62
     1
 10
2306.2641601562
 20
985.4171142578
 11
2306.2641601562
 21
988.6331787109
  0
ARC
  8
DOGSV_6
  6
DOGSL_1
 62
     1
 10
2303.5341796875
 20
988.6331787109
 40
2.7300000191
 50
0.0
 51
65.8803329468
  0
LINE
  8
DOGSV_6
  6
DOGSL_1
 62
     1
 10
2300.8041992188
 20
985.4171142578
 11
2300.8041992188
 21
988.6331787109
  0
ARC
  8
DOGSV_6
  6
DOGSL_1
 62
     1
 10
2303.5341796875
 20
983.5631713867
 40
3.299987793
 50
145.8199005127
 51
214.180847168
  0
LINE
  8
DOGSV_6
  6
DOGSL_1
 62
     1
 10
2300.8041992188
 20
978.4932250977
 11
2300.8041992188
 21
981.7092285156
  0
ARC
  8
DOGSV_6
  6
DOGSL_1
 62
     1
 10
2303.5341796875
 20
978.4932250977
 40
2.7300000191
 50
180.0
 51
346.9549865723
  0
LINE
  8
DOGSV_6
  6
DOGSL_1
 62
     1
 10
2301.3693847656
 20
978.5482177734
 11
2305.7492675781
 21
978.5482177734
  0
LINE
  8
DOGSV_6
  6
DOGSL_1
 62
     1
 10
2301.3693847656
 20
988.5781860352
 11
2305.7492675781
 21
988.5781860352
  0
LINE
  8
DOGSV_6
  6
DOGSL_1
 62
     1
 10
2299.734375
 20
983.5631713867
 11
2307.1342773438
 21
983.5631713867
  0
CIRCLE
  8
DOGSV_6
  6
DOGSL_1
 62
     1
 10
2303.5341796875
 20
983.5631713867
 40
2.7799999714
  0
LINE
  8
DOGSV_6
  6
DOGSL_1
 62
     1
 10
2305.1557617188
 20
985.8213500977
 11
2301.2761230469
 21
981.9415893555
  0
LINE
  8
DOGSV_6
  6
DOGSL_1
 62
     1
 10
2305.7922363281
 20
985.1848144531
 11
2301.9125976562
 21
981.3051757812
  0
LINE
  8
DOGSV_6
  6
DOGSL_1
 62
     1
 10
2299.734375
 20
956.5631713867
 11
2307.1342773438
 21
956.5631713867
  0
CIRCLE
  8
DOGSV_6
  6
DOGSL_1
 62
     1
 10
2303.5341796875
 20
956.5631713867
 40
2.7799999714
  0
LINE
  8
DOGSV_6
  6
DOGSL_1
 62
     1
 10
2305.1557617188
 20
958.8213500977
 11
2301.2761230469
 21
954.9415893555
  0
LINE
  8
DOGSV_6
  6
DOGSL_1
 62
     1
 10
2305.7922363281
 20
958.1848144531
 11
2301.9125976562
 21
954.3051757812
  0
LINE
  8
DOGSV_6
  6
DOGSL_1
 62
     1
 10
2299.734375
 20
1010.5631713867
 11
2307.1342773438
 21
1010.5631713867
  0
CIRCLE
  8
DOGSV_6
  6
DOGSL_1
 62
     1
 10
2303.5341796875
 20
1010.5631713867
 40
2.7799999714
  0
LINE
  8
DOGSV_6
  6
DOGSL_1
 62
     1
 10
2305.1557617188
 20
1012.8213500977
 11
2301.2761230469
 21
1008.9415893555
  0
LINE
  8
DOGSV_6
  6
DOGSL_1
 62
     1
 10
2305.7922363281
 20
1012.1848144531
 11
2301.9125976562
 21
1008.3051757812
  0
LINE
  8
DOGSV_6
  6
DOGSL_1
 62
     1
 10
2303.5341796875
 20
968.9631958008
 11
2303.5341796875
 21
952.4921875
  0
LINE
  8
DOGSV_6
  6
DOGSL_1
 62
     1
 10
2303.5341796875
 20
990.0859985352
 11
2303.5341796875
 21
976.5631713867
  0
LINE
  8
DOGSV_6
  6
DOGSL_1
 62
     1
 10
2303.5341796875
 20
1014.6451416016
 11
2303.5341796875
 21
997.7631835938
  0
LINE
  8
DOGSV_6
  6
DOGSL_1
 62
     1
 10
2297.0341796875
 20
1016.5631713867
 11
2297.0341796875
 21
953.2631835938
  0
ARC
  8
DOGSV_6
  6
DOGSL_1
 62
     1
 10
2300.0341796875
 20
953.2631835938
 40
3.0
 50
180.0
 51
270.0
  0
LINE
  8
DOGSV_6
  6
DOGSL_1
 62
     1
 10
2310.0341796875
 20
950.2631835938
 11
2315.0341796875
 21
950.2631835938
  0
LINE
  8
DOGSV_6
  6
DOGSL_1
 62
     1
 10
2296.0341796875
 20
946.7631835938
 11
2304.5341796875
 21
946.7631835938
  0
ARC
  8
DOGSV_6
  6
DOGSL_1
 62
     1
 10
2304.5341796875
 20
950.7631835938
 40
4.0
 50
270.0
 51
360.0
  0
LINE
  8
DOGSV_6
  6
DOGSL_1
 62
     1
 10
2306.0341796875
 20
952.7631835938
 11
2306.0341796875
 21
941.469909668
  0
ARC
  8
DOGSV_6
  6
DOGSL_1
 62
     1
 10
2297.5268554688
 20
1014.5631713867
 40
4.000005722
 50
7.5071434975
 51
90.0004272461
  0
LINE
  8
DOGSV_6
  6
DOGSL_1
 62
     1
 10
2301.4924316406
 20
1015.0858154297
 11
2310.0341796875
 21
950.2631835938
  0
ARC
  8
DOGSV_6
  6
DOGSL_1
 62
     1
 10
2303.5341796875
 20
999.8450927734
 40
2.729981184
 50
276.8101196289
 51
356.9515380859
  0
ARC
  8
DOGSV_6
  6
DOGSL_1
 62
     1
 10
2303.5344238281
 20
1010.5631103516
 40
3.3000478745
 50
131.3527832031
 51
183.0480804443
  0
ARC
  8
DOGSV_6
  6
DOGSL_1
 62
     1
 10
2303.5341796875
 20
988.6331176758
 40
2.730035305
 50
76.8087463379
 51
179.9990844727
  0
LINE
  8
DOGSV_6
  6
DOGSL_1
 62
     1
 10
2277.1362304688
 20
1012.6632080078
 11
2277.1362304688
 21
1001.5631713867
  0
LINE
  8
DOGSV_6
  6
DOGSL_1
 62
     1
 10
2277.1362304688
 20
956.7631835938
 11
2277.1362304688
 21
955.2131958008
  0
LINE
  8
DOGSV_6
  6
DOGSL_1
 62
     1
 10
2277.1362304688
 20
978.3632202148
 11
2277.1362304688
 21
958.3632202148
  0
LINE
  8
DOGSV_6
  6
DOGSL_1
 62
     1
 10
2277.1362304688
 20
999.9631958008
 11
2277.1362304688
 21
979.9631958008
  0
LINE
  8
DOGSV_6
  6
DOGSL_1
 62
     1
 10
2293.3361816406
 20
978.3632202148
 11
2293.3361816406
 21
979.9631958008
  0
LINE
  8
DOGSV_6
  6
DOGSL_1
 62
     1
 10
2289.6264648438
 20
977.4239501953
 11
2289.7885742188
 21
977.3068237305
  0
LINE
  8
DOGSV_6
  6
DOGSL_1
 62
     1
 10
2289.9926757812
 20
977.9315185547
 11
2289.6264648438
 21
977.4239501953
  0
ARC
  8
DOGSV_6
  6
DOGSL_1
 62
     1
 10
2290.8037109375
 20
977.3466186523
 40
1.0000252724
 50
56.2406463623
 51
144.1961975098
  0
LINE
  8
DOGSV_6
  6
DOGSL_1
 62
     1
 10
2293.3676757812
 20
976.8358154297
 11
2291.359375
 21
978.1779785156
  0
ARC
  8
DOGSV_6
  6
DOGSL_1
 62
     1
 10
2293.5344238281
 20
977.085144043
 40
0.2999931872
 50
236.2378845215
 51
359.9893798828
  0
LINE
  8
DOGSV_6
  6
DOGSL_1
 62
     1
 10
2293.8342285156
 20
983.9431152344
 11
2293.8342285156
 21
977.0852050781
  0
ARC
  8
DOGSV_6
  6
DOGSL_1
 62
     1
 10
2293.0341796875
 20
983.9431152344
 40
0.8000000119
 50
0.0
 51
90.0
  0
LINE
  8
DOGSV_6
  6
DOGSL_1
 62
     1
 10
2290.4643554688
 20
984.7431030273
 11
2293.0341796875
 21
984.7431030273
  0
ARC
  8
DOGSV_6
  6
DOGSL_1
 62
     1
 10
2290.4643554688
 20
983.9431152344
 40
0.8000000119
 50
90.0
 51
180.0
  0
LINE
  8
DOGSV_6
  6
DOGSL_1
 62
     1
 10
2289.6643066406
 20
983.9431152344
 11
2289.6643066406
 21
980.9631958008
  0
ARC
  8
DOGSV_6
  6
DOGSL_1
 62
     1
 10
2290.4643554688
 20
980.9631958008
 40
0.8000000119
 50
180.0
 51
270.0
  0
LINE
  8
DOGSV_6
  6
DOGSL_1
 62
     1
 10
2290.4643554688
 20
980.1631469727
 11
2291.513671875
 21
980.1631469727
  0
LINE
  8
DOGSV_6
  6
DOGSL_1
 62
     1
 10
2291.513671875
 20
980.1631469727
 11
2291.513671875
 21
979.9631958008
  0
LINE
  8
DOGSV_6
  6
DOGSL_1
 62
     1
 10
2290.4643554688
 20
979.9631958008
 11
2291.513671875
 21
979.9631958008
  0
ARC
  8
DOGSV_6
  6
DOGSL_1
 62
     1
 10
2290.4643554688
 20
980.9631958008
 40
1.0
 50
180.0
 51
270.0
  0
LINE
  8
DOGSV_6
  6
DOGSL_1
 62
     1
 10
2289.4643554688
 20
983.9431152344
 11
2289.4643554688
 21
980.9631958008
  0
ARC
  8
DOGSV_6
  6
DOGSL_1
 62
     1
 10
2290.4643554688
 20
983.9431152344
 40
1.0
 50
90.0
 51
180.0
  0
LINE
  8
DOGSV_6
  6
DOGSL_1
 62
     1
 10
2290.4643554688
 20
984.9431152344
 11
2293.0341796875
 21
984.9431152344
  0
ARC
  8
DOGSV_6
  6
DOGSL_1
 62
     1
 10
2293.0341796875
 20
983.9431152344
 40
1.0
 50
0.0
 51
90.0
  0
LINE
  8
DOGSV_6
  6
DOGSL_1
 62
     1
 10
2290.1547851562
 20
977.8145751953
 11
2289.7885742188
 21
977.3068237305
  0
ARC
  8
DOGSV_6
  6
DOGSL_1
 62
     1
 10
2290.8037109375
 20
977.3466186523
 40
0.8000335693
 50
56.2392196655
 51
144.199005127
  0
LINE
  8
DOGSV_6
  6
DOGSL_1
 62
     1
 10
2293.2565917969
 20
976.6694946289
 11
2291.2482910156
 21
978.01171875
  0
ARC
  8
DOGSV_6
  6
DOGSL_1
 62
     1
 10
2293.5341796875
 20
977.0852661133
 40
0.4999959469
 50
236.2476348877
 51
0.0007324219
  0
LINE
  8
DOGSV_6
  6
DOGSL_1
 62
     1
 10
2293.8344726562
 20
984.9081420898
 11
2293.3344726562
 21
984.9081420898
  0
LINE
  8
DOGSV_6
  6
DOGSL_1
 62
     1
 10
2293.8344726562
 20
980.2581787109
 11
2293.3344726562
 21
980.2581787109
  0
LINE
  8
DOGSV_6
  6
DOGSL_1
 62
     1
 10
2293.3344726562
 20
980.4631347656
 11
2292.8745117188
 21
980.4631347656
  0
LINE
  8
DOGSV_6
  6
DOGSL_1
 62
     1
 10
2293.3344726562
 20
984.703125
 11
2292.8745117188
 21
984.703125
  0
LINE
  8
DOGSV_6
  6
DOGSL_1
 62
     1
 10
2293.3344726562
 20
984.703125
 11
2293.3344726562
 21
980.2581787109
  0
LINE
  8
DOGSV_6
  6
DOGSL_1
 62
     1
 10
2291.984375
 20
983.8131713867
 11
2291.984375
 21
981.3531494141
  0
ARC
  8
DOGSV_6
  6
DOGSL_1
 62
     1
 10
2292.8745117188
 20
981.3531494141
 40
0.8899999857
 50
180.0
 51
270.0
  0
ARC
  8
DOGSV_6
  6
DOGSL_1
 62
     1
 10
2292.8745117188
 20
983.8131713867
 40
0.8899999857
 50
90.0
 51
180.0
  0
LINE
  8
DOGSV_6
  6
DOGSL_1
 62
     1
 10
2293.8344726562
 20
984.9081420898
 11
2293.8344726562
 21
984.5631713867
  0
LINE
  8
DOGSV_6
  6
DOGSL_1
 62
     1
 10
2290.4643554688
 20
982.5831298828
 11
2297.2336425781
 21
982.5831298828
  0
LINE
  8
DOGSV_6
  6
DOGSL_1
 62
     1
 10
2293.3361816406
 20
956.7631835938
 11
2293.3361816406
 21
958.3632202148
  0
LINE
  8
DOGSV_6
  6
DOGSL_1
 62
     1
 10
2289.6264648438
 20
955.8239135742
 11
2289.7885742188
 21
955.7067871094
  0
LINE
  8
DOGSV_6
  6
DOGSL_1
 62
     1
 10
2289.9926757812
 20
956.3315429688
 11
2289.6264648438
 21
955.8239135742
  0
ARC
  8
DOGSV_6
  6
DOGSL_1
 62
     1
 10
2290.8037109375
 20
955.7465820312
 40
1.0000252724
 50
56.2406463623
 51
144.1961975098
  0
LINE
  8
DOGSV_6
  6
DOGSL_1
 62
     1
 10
2293.3676757812
 20
955.2357788086
 11
2291.359375
 21
956.5780029297
  0
ARC
  8
DOGSV_6
  6
DOGSL_1
 62
     1
 10
2293.5344238281
 20
955.4851074219
 40
0.2999931872
 50
236.2378845215
 51
359.9893798828
  0
LINE
  8
DOGSV_6
  6
DOGSL_1
 62
     1
 10
2293.8342285156
 20
962.3431396484
 11
2293.8342285156
 21
955.4852294922
  0
ARC
  8
DOGSV_6
  6
DOGSL_1
 62
     1
 10
2293.0341796875
 20
962.3431396484
 40
0.8000000119
 50
0.0
 51
90.0
  0
LINE
  8
DOGSV_6
  6
DOGSL_1
 62
     1
 10
2290.4643554688
 20
963.1431274414
 11
2293.0341796875
 21
963.1431274414
  0
ARC
  8
DOGSV_6
  6
DOGSL_1
 62
     1
 10
2290.4643554688
 20
962.3431396484
 40
0.8000000119
 50
90.0
 51
180.0
  0
LINE
  8
DOGSV_6
  6
DOGSL_1
 62
     1
 10
2289.6643066406
 20
962.3431396484
 11
2289.6643066406
 21
959.3632202148
  0
ARC
  8
DOGSV_6
  6
DOGSL_1
 62
     1
 10
2290.4643554688
 20
959.3632202148
 40
0.8000000119
 50
180.0
 51
270.0
  0
LINE
  8
DOGSV_6
  6
DOGSL_1
 62
     1
 10
2290.4643554688
 20
958.5631103516
 11
2291.513671875
 21
958.5631103516
  0
LINE
  8
DOGSV_6
  6
DOGSL_1
 62
     1
 10
2291.513671875
 20
958.5631103516
 11
2291.513671875
 21
958.3632202148
  0
LINE
  8
DOGSV_6
  6
DOGSL_1
 62
     1
 10
2290.4643554688
 20
958.3632202148
 11
2291.513671875
 21
958.3632202148
  0
ARC
  8
DOGSV_6
  6
DOGSL_1
 62
     1
 10
2290.4643554688
 20
959.3632202148
 40
1.0
 50
180.0
 51
270.0
  0
LINE
  8
DOGSV_6
  6
DOGSL_1
 62
     1
 10
2289.4643554688
 20
962.3431396484
 11
2289.4643554688
 21
959.3632202148
  0
ARC
  8
DOGSV_6
  6
DOGSL_1
 62
     1
 10
2290.4643554688
 20
962.3431396484
 40
1.0
 50
90.0
 51
180.0
  0
LINE
  8
DOGSV_6
  6
DOGSL_1
 62
     1
 10
2290.4643554688
 20
963.3431396484
 11
2293.0341796875
 21
963.3431396484
  0
ARC
  8
DOGSV_6
  6
DOGSL_1
 62
     1
 10
2293.0341796875
 20
962.3431396484
 40
1.0
 50
0.0
 51
90.0
  0
LINE
  8
DOGSV_6
  6
DOGSL_1
 62
     1
 10
2290.1547851562
 20
956.2145996094
 11
2289.7885742188
 21
955.7067871094
  0
ARC
  8
DOGSV_6
  6
DOGSL_1
 62
     1
 10
2290.8037109375
 20
955.7465820312
 40
0.8000335693
 50
56.2392196655
 51
144.199005127
  0
LINE
  8
DOGSV_6
  6
DOGSL_1
 62
     1
 10
2293.2565917969
 20
955.069519043
 11
2291.2482910156
 21
956.4117431641
  0
ARC
  8
DOGSV_6
  6
DOGSL_1
 62
     1
 10
2293.5341796875
 20
955.4852294922
 40
0.4999959469
 50
236.2476348877
 51
0.0007324219
  0
LINE
  8
DOGSV_6
  6
DOGSL_1
 62
     1
 10
2293.8344726562
 20
963.3081054688
 11
2293.3344726562
 21
963.3081054688
  0
LINE
  8
DOGSV_6
  6
DOGSL_1
 62
     1
 10
2293.8344726562
 20
958.658203125
 11
2293.3344726562
 21
958.658203125
  0
LINE
  8
DOGSV_6
  6
DOGSL_1
 62
     1
 10
2293.3344726562
 20
958.8630981445
 11
2292.8745117188
 21
958.8630981445
  0
LINE
  8
DOGSV_6
  6
DOGSL_1
 62
     1
 10
2293.3344726562
 20
963.1031494141
 11
2292.8745117188
 21
963.1031494141
  0
LINE
  8
DOGSV_6
  6
DOGSL_1
 62
     1
 10
2293.3344726562
 20
963.1031494141
 11
2293.3344726562
 21
958.658203125
  0
LINE
  8
DOGSV_6
  6
DOGSL_1
 62
     1
 10
2291.984375
 20
962.2131958008
 11
2291.984375
 21
959.753112793
  0
ARC
  8
DOGSV_6
  6
DOGSL_1
 62
     1
 10
2292.8745117188
 20
959.753112793
 40
0.8899999857
 50
180.0
 51
270.0
  0
ARC
  8
DOGSV_6
  6
DOGSL_1
 62
     1
 10
2292.8745117188
 20
962.2131958008
 40
0.8899999857
 50
90.0
 51
180.0
  0
LINE
  8
DOGSV_6
  6
DOGSL_1
 62
     1
 10
2293.8344726562
 20
963.3081054688
 11
2293.8344726562
 21
962.9631958008
  0
LINE
  8
DOGSV_6
  6
DOGSL_1
 62
     1
 10
2290.4643554688
 20
960.9830932617
 11
2297.2336425781
 21
960.9830932617
  0
LINE
  8
DOGSV_6
  6
DOGSL_1
 62
     1
 10
2294.0341796875
 20
954.7631835938
 11
2293.4753417969
 21
954.7631835938
  0
LINE
  8
DOGSV_6
  6
DOGSL_1
 62
     1
 10
2293.4753417969
 20
954.7631835938
 11
2293.4753417969
 21
949.3222045898
  0
ARC
  8
DOGSV_6
  6
DOGSL_1
 62
     1
 10
2291.4753417969
 20
949.3222045898
 40
2.0
 50
270.0
 51
360.0
  0
ARC
  8
DOGSV_6
  6
DOGSL_1
 62
     1
 10
2291.4753417969
 20
949.3222045898
 40
2.5590000153
 50
270.0
 51
360.0
  0
LINE
  8
DOGSV_6
  6
DOGSL_1
 62
     1
 10
2292.9672851562
 20
949.7131958008
 11
2292.9672851562
 21
953.8131713867
  0
LINE
  8
DOGSV_6
  6
DOGSL_1
 62
     1
 10
2290.6813964844
 20
950.5567016602
 11
2290.6813964844
 21
952.9696044922
  0
LINE
  8
DOGSV_6
  6
DOGSL_1
 62
     1
 10
2292.5307617188
 20
950.3192138672
 11
2290.6813964844
 21
950.5567016602
  0
ARC
  8
DOGSV_6
  6
DOGSL_1
 62
     1
 10
2292.4672851562
 20
949.8233032227
 40
0.5
 50
0.0
 51
82.6977767944
  0
ARC
  8
DOGSV_6
  6
DOGSL_1
 62
     1
 10
2292.4672851562
 20
953.703125
 40
0.499981612
 50
277.3080749512
 51
0.005859375
  0
LINE
  8
DOGSV_6
  6
DOGSL_1
 62
     1
 10
2292.5307617188
 20
953.2072143555
 11
2290.6813964844
 21
952.9696044922
  0
LINE
  8
DOGSV_6
  6
DOGSL_1
 62
     1
 10
2292.9672851562
 20
953.8131713867
 11
2293.4753417969
 21
953.8131713867
  0
LINE
  8
DOGSV_6
  6
DOGSL_1
 62
     1
 10
2292.9672851562
 20
949.7131958008
 11
2293.4753417969
 21
949.7131958008
  0
LINE
  8
DOGSV_6
  6
DOGSL_1
 62
     1
 10
2288.4609375
 20
951.7631835938
 11
2298.8115234375
 21
951.7631835938
  0
LINE
  8
DOGSV_6
  6
DOGSL_1
 62
     1
 10
2294.0341796875
 20
946.7631835938
 11
2296.0341796875
 21
946.7631835938
  0
LINE
  8
DOGSV_6
  6
DOGSL_1
 62
     1
 10
2289.6552734375
 20
952.5682983398
 11
2289.6552734375
 21
950.9583129883
  0
LINE
  8
DOGSV_6
  6
DOGSL_1
 62
     1
 10
2290.6813964844
 20
952.8483276367
 11
2289.9353027344
 21
952.8483276367
  0
LINE
  8
DOGSV_6
  6
DOGSL_1
 62
     1
 10
2290.6813964844
 20
950.6783447266
 11
2289.9353027344
 21
950.6783447266
  0
LINE
  8
DOGSV_6
  6
DOGSL_1
 62
     1
 10
2290.6813964844
 20
950.9583129883
 11
2289.6552734375
 21
950.9583129883
  0
LINE
  8
DOGSV_6
  6
DOGSL_1
 62
     1
 10
2290.6813964844
 20
952.5682983398
 11
2289.6552734375
 21
952.5682983398
  0
LINE
  8
DOGSV_6
  6
DOGSL_1
 62
     1
 10
2289.6552734375
 20
952.5682983398
 11
2289.9353027344
 21
952.8483276367
  0
LINE
  8
DOGSV_6
  6
DOGSL_1
 62
     1
 10
2289.9353027344
 20
952.8483276367
 11
2289.9353027344
 21
950.6783447266
  0
LINE
  8
DOGSV_6
  6
DOGSL_1
 62
     1
 10
2289.6552734375
 20
950.9583129883
 11
2289.9353027344
 21
950.6783447266
  0
LINE
  8
DOGSV_6
  6
DOGSL_1
 62
     1
 10
2269.6018066406
 20
951.7631835938
 11
2279.0708007812
 21
951.7631835938
  0
LINE
  8
DOGSV_6
  6
DOGSL_1
 62
     1
 10
2274.3361816406
 20
954.3632202148
 11
2274.3361816406
 21
949.1632080078
  0
LINE
  8
DOGSV_6
  6
DOGSL_1
 62
     1
 10
2271.1613769531
 20
953.2562255859
 11
2271.1613769531
 21
950.2562255859
  0
LINE
  8
DOGSV_6
  6
DOGSL_1
 62
     1
 10
2277.5112304688
 20
953.2562255859
 11
2277.5112304688
 21
950.2562255859
  0
CIRCLE
  8
DOGSV_6
  6
DOGSL_1
 62
     1
 10
2271.1613769531
 20
951.7631835938
 40
0.8379999995
  0
CIRCLE
  8
DOGSV_6
  6
DOGSL_1
 62
     1
 10
2277.5112304688
 20
951.7631835938
 40
0.8379999995
  0
ARC
  8
DOGSV_6
  6
DOGSL_1
 62
     1
 10
2277.4931640625
 20
951.7631835938
 40
2.0499999523
 50
270.0
 51
90.0
  0
ARC
  8
DOGSV_6
  6
DOGSL_1
 62
     1
 10
2271.1791992188
 20
951.7631835938
 40
2.0499999523
 50
90.0
 51
270.0
  0
LINE
  8
DOGSV_6
  6
DOGSL_1
 62
     1
 10
2271.1791992188
 20
953.8131713867
 11
2277.4931640625
 21
953.8131713867
  0
LINE
  8
DOGSV_6
  6
DOGSL_1
 62
     1
 10
2271.1791992188
 20
949.7131958008
 11
2277.4931640625
 21
949.7131958008
  0
CIRCLE
  8
DOGSV_6
  6
DOGSL_1
 62
     1
 10
2274.3361816406
 20
951.7631835938
 40
0.8050000072
  0
ARC
  8
DOGSV_6
  6
DOGSL_1
 62
     1
 10
2274.3361816406
 20
951.7632446289
 40
1.0850193501
 50
227.8733673096
 51
134.3285522461
  0
CIRCLE
  8
DOGSV_6
  6
DOGSL_1
 62
     1
 10
2274.3361816406
 20
951.7631835938
 40
1.5
  0
LINE
  8
DOGSV_6
  6
DOGSL_1
 62
     1
 10
2236.6018066406
 20
951.7631835938
 11
2246.0708007812
 21
951.7631835938
  0
LINE
  8
DOGSV_6
  6
DOGSL_1
 62
     1
 10
2241.3361816406
 20
954.3632202148
 11
2241.3361816406
 21
949.1632080078
  0
LINE
  8
DOGSV_6
  6
DOGSL_1
 62
     1
 10
2238.1613769531
 20
953.2562255859
 11
2238.1613769531
 21
950.2562255859
  0
LINE
  8
DOGSV_6
  6
DOGSL_1
 62
     1
 10
2244.5112304688
 20
953.2562255859
 11
2244.5112304688
 21
950.2562255859
  0
CIRCLE
  8
DOGSV_6
  6
DOGSL_1
 62
     1
 10
2238.1613769531
 20
951.7631835938
 40
0.8379999995
  0
CIRCLE
  8
DOGSV_6
  6
DOGSL_1
 62
     1
 10
2244.5112304688
 20
951.7631835938
 40
0.8379999995
  0
ARC
  8
DOGSV_6
  6
DOGSL_1
 62
     1
 10
2244.4931640625
 20
951.7631835938
 40
2.0499999523
 50
270.0
 51
90.0
  0
ARC
  8
DOGSV_6
  6
DOGSL_1
 62
     1
 10
2238.1791992188
 20
951.7631835938
 40
2.0499999523
 50
90.0
 51
270.0
  0
LINE
  8
DOGSV_6
  6
DOGSL_1
 62
     1
 10
2238.1791992188
 20
953.8131713867
 11
2244.4931640625
 21
953.8131713867
  0
LINE
  8
DOGSV_6
  6
DOGSL_1
 62
     1
 10
2238.1791992188
 20
949.7131958008
 11
2244.4931640625
 21
949.7131958008
  0
CIRCLE
  8
DOGSV_6
  6
DOGSL_1
 62
     1
 10
2241.3361816406
 20
951.7631835938
 40
0.8050000072
  0
ARC
  8
DOGSV_6
  6
DOGSL_1
 62
     1
 10
2241.3361816406
 20
951.7632446289
 40
1.0850193501
 50
227.8733673096
 51
134.3285522461
  0
CIRCLE
  8
DOGSV_6
  6
DOGSL_1
 62
     1
 10
2241.3361816406
 20
951.7631835938
 40
1.5
  0
LINE
  8
DOGSV_6
  6
DOGSL_1
 62
     1
 10
2296.0341796875
 20
1020.5631713867
 11
2296.0341796875
 21
945.7631835938
  0
LINE
  8
DOGSV_6
  6
DOGSL_1
 62
     1
 10
2300.0341796875
 20
950.2631835938
 11
2310.0341796875
 21
950.2631835938
  0
LINE
  8
DOGSV_6
  6
DOGSL_1
 62
     1
 10
2582.8081054688
 20
1030.0576171875
 11
2538.8081054688
 21
1030.0576171875
  0
LINE
  8
DOGSV_6
  6
DOGSL_1
 62
     1
 10
2544.5581054688
 20
1006.6575317383
 11
2537.5581054688
 21
1006.6575317383
  0
LINE
  8
DOGSV_6
  6
DOGSL_1
 62
     1
 10
2537.5581054688
 20
1006.6575317383
 11
2537.5581054688
 21
1008.6575927734
  0
LINE
  8
DOGSV_6
  6
DOGSL_1
 62
     1
 10
2537.5581054688
 20
1008.6575927734
 11
2544.5581054688
 21
1008.6575927734
  0
LINE
  8
DOGSV_6
  6
DOGSL_1
 62
     1
 10
2544.5581054688
 20
1006.6575317383
 11
2544.5581054688
 21
1008.6575927734
  0
LINE
  8
DOGSV_6
  6
DOGSL_1
 62
     1
 10
2544.0581054688
 20
1002.6575927734
 11
2538.0581054688
 21
1002.6575317383
  0
LINE
  8
DOGSV_6
  6
DOGSL_1
 62
     1
 10
2538.0581054688
 20
1002.6575317383
 11
2538.0581054688
 21
1006.6575317383
  0
LINE
  8
DOGSV_6
  6
DOGSL_1
 62
     1
 10
2538.0581054688
 20
1006.6575317383
 11
2544.0581054688
 21
1006.6575317383
  0
LINE
  8
DOGSV_6
  6
DOGSL_1
 62
     1
 10
2544.0581054688
 20
1002.6575927734
 11
2544.0581054688
 21
1006.6575317383
  0
LINE
  8
DOGSV_6
  6
DOGSL_1
 62
     1
 10
2538.8081054688
 20
1030.0576171875
 11
2538.8081054688
 21
1033.2575683594
  0
LINE
  8
DOGSV_6
  6
DOGSL_1
 62
     1
 10
2538.8081054688
 20
1033.2575683594
 11
2582.8081054688
 21
1033.2575683594
  0
LINE
  8
DOGSV_6
  6
DOGSL_1
 62
     1
 10
2548.5581054688
 20
1008.6575317383
 11
2548.5581054688
 21
1042.6575927734
  0
LINE
  8
DOGSV_6
  6
DOGSL_1
 62
     1
 10
2533.5581054688
 20
1008.6575927734
 11
2548.5581054688
 21
1008.6575317383
  0
LINE
  8
DOGSV_6
  6
DOGSL_1
 62
     1
 10
2533.5581054688
 20
1042.6575927734
 11
2533.5581054688
 21
1008.6575927734
  0
LINE
  8
DOGSV_6
  6
DOGSL_1
 62
     1
 10
2548.5581054688
 20
1042.6575927734
 11
2533.5581054688
 21
1042.6575927734
  0
LINE
  8
DOGSV_6
  6
DOGSL_1
 62
     1
 10
2548.5581054688
 20
1020.6575317383
 11
2548.5581054688
 21
1042.6575927734
  0
LINE
  8
DOGSV_6
  6
DOGSL_1
 62
     1
 10
2573.5581054688
 20
1020.6575317383
 11
2548.5581054688
 21
1020.6575317383
  0
LINE
  8
DOGSV_6
  6
DOGSL_1
 62
     1
 10
2548.5581054688
 20
1042.6575927734
 11
2573.5581054688
 21
1042.6575927734
  0
LINE
  8
DOGSV_6
  6
DOGSL_1
 62
     1
 10
2582.8081054688
 20
1026.9075927734
 11
2582.8081054688
 21
1036.4075927734
  0
LINE
  8
DOGSV_6
  6
DOGSL_1
 62
     1
 10
2579.0581054688
 20
997.4019775391
 11
2578.8081054688
 21
997.4019775391
  0
LINE
  8
DOGSV_6
  6
DOGSL_1
 62
     1
 10
2578.8081054688
 20
997.4019775391
 11
2578.8081054688
 21
1065.9132080078
  0
LINE
  8
DOGSV_6
  6
DOGSL_1
 62
     1
 10
2578.8081054688
 20
1065.9132080078
 11
2579.0581054688
 21
1065.9132080078
  0
LINE
  8
DOGSV_6
  6
DOGSL_1
 62
     1
 10
2579.0581054688
 20
997.4019775391
 11
2579.0581054688
 21
1065.9132080078
  0
LINE
  8
DOGSV_6
  6
DOGSL_1
 62
     1
 10
2575.8081054688
 20
1030.0576171875
 11
2575.8081054688
 21
1025.3076171875
  0
LINE
  8
DOGSV_6
  6
DOGSL_1
 62
     1
 10
2575.0581054688
 20
1030.0576171875
 11
2575.0581054688
 21
1024.5225830078
  0
LINE
  8
DOGSV_6
  6
DOGSL_1
 62
     1
 10
2578.8081054688
 20
1038.7924804688
 11
2578.8081054688
 21
1024.5225830078
  0
LINE
  8
DOGSV_6
  6
DOGSL_1
 62
     1
 10
2582.8081054688
 20
1036.4075927734
 11
2579.8081054688
 21
1036.4075927734
  0
LINE
  8
DOGSV_6
  6
DOGSL_1
 62
     1
 10
2578.8081054688
 20
1038.7924804688
 11
2577.3081054688
 21
1038.7926025391
  0
LINE
  8
DOGSV_6
  6
DOGSL_1
 62
     1
 10
2578.8081054688
 20
1037.4075927734
 11
2578.8081054688
 21
1038.7924804688
  0
ARC
  8
DOGSV_6
  6
DOGSL_1
 62
     1
 10
2579.8081054688
 20
1037.4075927734
 40
1.0
 50
180.0
 51
270.0
  0
ARC
  8
DOGSV_6
  6
DOGSL_1
 62
     1
 10
2576.3081054688
 20
1034.6575927734
 40
1.0
 50
270.0
 51
0.0
  0
LINE
  8
DOGSV_6
  6
DOGSL_1
 62
     1
 10
2575.8081054688
 20
1038.0075683594
 11
2575.0581054688
 21
1038.0075683594
  0
LINE
  8
DOGSV_6
  6
DOGSL_1
 62
     1
 10
2575.0581054688
 20
1038.7926025391
 11
2573.5581054688
 21
1038.7924804688
  0
ARC
  8
DOGSV_6
  6
DOGSL_1
 62
     1
 10
2576.3081054688
 20
1028.6575927734
 40
1.0
 50
0.0
 51
90.0
  0
LINE
  8
DOGSV_6
  6
DOGSL_1
 62
     1
 10
2577.3081054688
 20
1028.6575927734
 11
2577.3081054688
 21
1024.5224609375
  0
LINE
  8
DOGSV_6
  6
DOGSL_1
 62
     1
 10
2576.3081054688
 20
1033.6575927734
 11
2575.8081054688
 21
1033.6575927734
  0
LINE
  8
DOGSV_6
  6
DOGSL_1
 62
     1
 10
2576.3081054688
 20
1029.6575927734
 11
2575.8081054688
 21
1029.6575927734
  0
ARC
  8
DOGSV_6
  6
DOGSL_1
 62
     1
 10
2579.8081054688
 20
1025.9075927734
 40
1.0
 50
90.0
 51
180.0
  0
LINE
  8
DOGSV_6
  6
DOGSL_1
 62
     1
 10
2575.0581054688
 20
1024.5225830078
 11
2573.5581054688
 21
1024.5225830078
  0
LINE
  8
DOGSV_6
  6
DOGSL_1
 62
     1
 10
2575.8081054688
 20
1025.3076171875
 11
2575.0581054688
 21
1025.3076171875
  0
LINE
  8
DOGSV_6
  6
DOGSL_1
 62
     1
 10
2578.8081054688
 20
1024.5225830078
 11
2577.3081054688
 21
1024.5224609375
  0
LINE
  8
DOGSV_6
  6
DOGSL_1
 62
     1
 10
2582.8081054688
 20
1026.9075927734
 11
2579.8081054688
 21
1026.9074707031
  0
LINE
  8
DOGSV_6
  6
DOGSL_1
 62
     1
 10
2582.8081054688
 20
1030.0576171875
 11
2582.8081054688
 21
1033.2575683594
  0
LINE
  8
DOGSV_6
  6
DOGSL_1
 62
     1
 10
2578.8081054688
 20
1025.9075927734
 11
2578.8081054688
 21
1024.5225830078
  0
LINE
  8
DOGSV_6
  6
DOGSL_1
 62
     1
 10
2577.3081054688
 20
1038.7926025391
 11
2577.3081054688
 21
1034.6575927734
  0
LINE
  8
DOGSV_6
  6
DOGSL_1
 62
     1
 10
2575.8081054688
 20
1038.0075683594
 11
2575.8081054688
 21
1033.2575683594
  0
LINE
  8
DOGSV_6
  6
DOGSL_1
 62
     1
 10
2575.0581054688
 20
1038.7926025391
 11
2575.0581054688
 21
1033.2575683594
  0
LINE
  8
DOGSV_6
  6
DOGSL_1
 62
     1
 10
2573.5581054688
 20
1042.6575927734
 11
2573.5581054688
 21
1020.6575317383
  0
LINE
  8
DOGSV_6
  6
DOGSL_3
 62
     3
 10
2582.8081054688
 20
1031.6575927734
 11
2538.8081054688
 21
1031.6575927734
  0
LINE
  8
DOGSV_6
  6
DOGSL_1
 62
     1
 10
2532.6831054688
 20
1085.1634521484
 11
2532.6831054688
 21
1053.4134521484
  0
LINE
  8
DOGSV_6
  6
DOGSL_1
 62
     1
 10
2532.6831054688
 20
1053.4134521484
 11
2564.4331054688
 21
1053.4134521484
  0
LINE
  8
DOGSV_6
  6
DOGSL_1
 62
     1
 10
2564.4331054688
 20
1085.1634521484
 11
2564.4331054688
 21
1053.4134521484
  0
LINE
  8
DOGSV_6
  6
DOGSL_1
 62
     1
 10
2532.6831054688
 20
1085.1634521484
 11
2564.4331054688
 21
1085.1634521484
  0
LINE
  8
DOGSV_6
  6
DOGSL_3
 62
     3
 10
2548.5581054688
 20
1089.5124511719
 11
2548.5581054688
 21
1047.0610351562
  0
LINE
  8
DOGSV_6
  6
DOGSL_2
 62
     3
 10
2564.4331054688
 20
1063.0646972656
 11
2532.6831054688
 21
1063.0646972656
  0
LINE
  8
DOGSV_6
  6
DOGSL_2
 62
     3
 10
2564.4331054688
 20
1056.4608154297
 11
2532.6831054688
 21
1056.4608154297
  0
LINE
  8
DOGSV_6
  6
DOGSL_3
 62
     3
 10
2568.7197265625
 20
1059.7628173828
 11
2527.4545898438
 21
1059.7628173828
  0
LINE
  8
DOGSV_6
  6
DOGSL_1
 62
     1
 10
3523.2521972656
 20
1484.5161132812
 11
3603.2412109375
 21
1485.8275146484
  0
LINE
  8
DOGSV_6
  6
DOGSL_1
 62
     1
 10
3603.2412109375
 20
1485.8275146484
 11
3601.4379882812
 21
1595.8127441406
  0
LINE
  8
DOGSV_6
  6
DOGSL_1
 62
     1
 10
3522.3505859375
 20
1539.5086669922
 11
3602.3395996094
 21
1540.8201904297
  0
LINE
  8
DOGSV_6
  6
DOGSL_1
 62
     1
 10
3546.7490234375
 20
1484.9013671875
 11
3544.9458007812
 21
1594.8865966797
  0
LINE
  8
DOGSV_6
  6
DOGSL_1
 62
     1
 10
3601.4379882812
 20
1595.8127441406
 11
3521.4487304688
 21
1594.5013427734
  0
LINE
  8
DOGSV_6
  6
DOGSL_1
 62
     1
 10
3523.2521972656
 20
1484.5161132812
 11
3521.4487304688
 21
1594.5013427734
  0
LINE
  8
DOGSV_6
  6
DOGSL_1
 62
     1
 10
3545.8937988281
 20
1484.8873291016
 11
3544.0905761719
 21
1594.8725585938
  0
ARC
  8
DOGSV_6
  6
DOGSL_1
 62
     1
 10
2345.849609375
 20
1059.7631835938
 40
1199.9975585938
 50
357.8504638672
 51
2.1495056152
  0
LINE
  8
DOGSV_6
  6
DOGSL_1
 62
     1
 10
3573.2451171875
 20
1018.9834594727
 11
3575.9248046875
 21
1021.6632080078
  0
LINE
  8
DOGSV_6
  6
DOGSL_1
 62
     1
 10
3568.7551269531
 20
1018.9834594727
 11
3575.3620605469
 21
1025.5905761719
  0
LINE
  8
DOGSV_6
  6
DOGSL_1
 62
     1
 10
3567.4118652344
 20
1022.1304931641
 11
3575.3620605469
 21
1030.0806884766
  0
LINE
  8
DOGSV_6
  6
DOGSL_1
 62
     1
 10
3567.4118652344
 20
1026.6206054688
 11
3575.3620605469
 21
1034.5708007812
  0
LINE
  8
DOGSV_6
  6
DOGSL_1
 62
     1
 10
3567.4118652344
 20
1031.1107177734
 11
3575.3620605469
 21
1039.0609130859
  0
LINE
  8
DOGSV_6
  6
DOGSL_1
 62
     1
 10
3567.4118652344
 20
1035.6009521484
 11
3575.3620605469
 21
1043.5511474609
  0
LINE
  8
DOGSV_6
  6
DOGSL_1
 62
     1
 10
3567.4118652344
 20
1040.0910644531
 11
3577.7497558594
 21
1050.4288330078
  0
LINE
  8
DOGSV_6
  6
DOGSL_1
 62
     1
 10
3565.8371582031
 20
1043.0063476562
 11
3577.7497558594
 21
1054.9189453125
  0
LINE
  8
DOGSV_6
  6
DOGSL_1
 62
     1
 10
3565.8371582031
 20
1047.4964599609
 11
3577.7497558594
 21
1059.4090576172
  0
LINE
  8
DOGSV_6
  6
DOGSL_1
 62
     1
 10
3565.8371582031
 20
1051.9865722656
 11
3577.7497558594
 21
1063.8991699219
  0
LINE
  8
DOGSV_6
  6
DOGSL_1
 62
     1
 10
3565.8371582031
 20
1056.4768066406
 11
3577.7497558594
 21
1068.3894042969
  0
LINE
  8
DOGSV_6
  6
DOGSL_1
 62
     1
 10
3565.8371582031
 20
1060.9669189453
 11
3577.3081054688
 21
1072.4377441406
  0
LINE
  8
DOGSV_6
  6
DOGSL_1
 62
     1
 10
3565.8371582031
 20
1065.45703125
 11
3575.3620605469
 21
1074.9820556641
  0
LINE
  8
DOGSV_6
  6
DOGSL_1
 62
     1
 10
3565.8371582031
 20
1069.9471435547
 11
3575.3620605469
 21
1079.4721679688
  0
LINE
  8
DOGSV_6
  6
DOGSL_1
 62
     1
 10
3565.8371582031
 20
1074.4372558594
 11
3574.9755859375
 21
1083.5756835938
  0
LINE
  8
DOGSV_6
  6
DOGSL_1
 62
     1
 10
3567.4118652344
 20
1080.5021972656
 11
3570.4853515625
 21
1083.5756835938
  0
LINE
  8
DOGSV_6
  6
DOGSL_1
 62
     1
 10
3542.6723632812
 20
1007.3756713867
 11
3542.6723632812
 21
1112.1506347656
  0
LINE
  8
DOGSV_6
  6
DOGSL_1
 62
     1
 10
3541.1484375
 20
1007.3756713867
 11
3541.1484375
 21
1112.1506347656
  0
LINE
  8
DOGSV_6
  6
DOGSL_1
 62
     1
 10
3576.1750488281
 20
1005.5850219727
 11
3576.1750488281
 21
1059.7631835938
  0
LINE
  8
DOGSV_6
  6
DOGSL_1
 62
     1
 10
3576.1750488281
 20
1059.7631835938
 11
3542.6723632812
 21
1005.5850219727
  0
LINE
  8
DOGSV_6
  6
DOGSL_1
 62
     1
 10
3582.5249023438
 20
1001.0510864258
 11
3582.5249023438
 21
1108.9757080078
  0
LINE
  8
DOGSV_6
  6
DOGSL_1
 62
     1
 10
3562.662109375
 20
1012.1381835938
 11
3562.662109375
 21
1107.3881835938
  0
LINE
  8
DOGSV_6
  6
DOGSL_1
 62
     1
 10
3575.3620605469
 20
1021.6632080078
 11
3575.3620605469
 21
1047.0886230469
  0
LINE
  8
DOGSV_6
  6
DOGSL_1
 62
     1
 10
3567.4118652344
 20
1014.2590942383
 11
3567.4118652344
 21
1040.7132568359
  0
LINE
  8
DOGSV_6
  6
DOGSL_1
 62
     1
 10
3565.8371582031
 20
1104.7719726562
 11
3565.8371582031
 21
1014.7543945312
  0
LINE
  8
DOGSV_6
  6
DOGSL_1
 62
     1
 10
3540.3547363281
 20
1000.2255859375
 11
3582.5249023438
 21
1000.2255859375
  0
LINE
  8
DOGSV_6
  6
DOGSL_1
 62
     1
 10
3542.6723632812
 20
1005.5850219727
 11
3582.5249023438
 21
1005.5850219727
  0
LINE
  8
DOGSV_6
  6
DOGSL_1
 62
     1
 10
3539.4973144531
 20
996.2631835938
 11
3522.0476074219
 21
996.2631835938
  0
LINE
  8
DOGSV_6
  6
DOGSL_1
 62
     1
 10
3522.0476074219
 20
1005.5850219727
 11
3542.6723632812
 21
1005.5850219727
  0
LINE
  8
DOGSV_6
  6
DOGSL_1
 62
     1
 10
3525.22265625
 20
996.2631835938
 11
3525.22265625
 21
1005.5850219727
  0
LINE
  8
DOGSV_6
  6
DOGSL_1
 62
     1
 10
3522.0476074219
 20
996.2631835938
 11
3522.0476074219
 21
1005.5850219727
  0
LINE
  8
DOGSV_6
  6
DOGSL_1
 62
     1
 10
3552.197265625
 20
997.0505981445
 11
3539.4973144531
 21
997.0505981445
  0
LINE
  8
DOGSV_6
  6
DOGSL_1
 62
     1
 10
3549.0224609375
 20
1001.8258056641
 11
3542.6723632812
 21
1001.8258056641
  0
LINE
  8
DOGSV_6
  6
DOGSL_1
 62
     1
 10
3549.0224609375
 20
1001.8258056641
 11
3545.8474121094
 21
1003.6588745117
  0
ARC
  8
DOGSV_6
  6
DOGSL_1
 62
     1
 10
3541.0849609375
 20
1001.6353149414
 40
1.5875200033
 50
0.0
 51
180.0
  0
LINE
  8
DOGSV_6
  6
DOGSL_1
 62
     1
 10
3537.8972167969
 20
1000.2255859375
 11
3537.8972167969
 21
997.0505981445
  0
LINE
  8
DOGSV_6
  6
DOGSL_1
 62
     1
 10
3539.4973144531
 20
997.0505981445
 11
3537.8972167969
 21
997.0505981445
  0
LINE
  8
DOGSV_6
  6
DOGSL_1
 62
     1
 10
3537.8972167969
 20
1000.2255859375
 11
3540.3547363281
 21
1000.2255859375
  0
LINE
  8
DOGSV_6
  6
DOGSL_1
 62
     1
 10
3539.4973144531
 20
1001.6352539062
 11
3539.4973144531
 21
996.2631835938
  0
LINE
  8
DOGSV_6
  6
DOGSL_1
 62
     1
 10
3542.6723632812
 20
997.0505981445
 11
3542.6723632812
 21
1000.2255859375
  0
LINE
  8
DOGSV_6
  6
DOGSL_1
 62
     1
 10
3542.6723632812
 20
1001.8258056641
 11
3545.8474121094
 21
1003.6588745117
  0
LINE
  8
DOGSV_6
  6
DOGSL_1
 62
     1
 10
3542.6723632812
 20
1001.6352539062
 11
3542.6723632812
 21
997.0505981445
  0
LINE
  8
DOGSV_6
  6
DOGSL_1
 62
     1
 10
3549.0224609375
 20
997.0505981445
 11
3549.0224609375
 21
1001.8258056641
  0
LINE
  8
DOGSV_6
  6
DOGSL_1
 62
     1
 10
3552.197265625
 20
997.0505981445
 11
3552.197265625
 21
1000.2255859375
  0
LINE
  8
DOGSV_6
  6
DOGSL_1
 62
     1
 10
3565.8371582031
 20
1014.7543945312
 11
3545.0029296875
 21
1014.7543945312
  0
LINE
  8
DOGSV_6
  6
DOGSL_1
 62
     1
 10
3542.6723632812
 20
1007.3756713867
 11
3541.1484375
 21
1007.3756713867
  0
LINE
  8
DOGSV_6
  6
DOGSL_1
 62
     1
 10
3542.6723632812
 20
1021.0155029297
 11
3541.1484375
 21
1021.0155029297
  0
LINE
  8
DOGSV_6
  6
DOGSL_1
 62
     1
 10
3576.1750488281
 20
1012.1381835938
 11
3576.1750488281
 21
1021.6632080078
  0
LINE
  8
DOGSV_6
  6
DOGSL_1
 62
     1
 10
3575.3801269531
 20
1012.1381835938
 11
3576.1750488281
 21
1012.9329833984
  0
LINE
  8
DOGSV_6
  6
DOGSL_1
 62
     1
 10
3570.8898925781
 20
1012.1381835938
 11
3573.5695800781
 21
1014.8178710938
  0
LINE
  8
DOGSV_6
  6
DOGSL_1
 62
     1
 10
3566.3999023438
 20
1012.1381835938
 11
3569.0795898438
 21
1014.8178710938
  0
LINE
  8
DOGSV_6
  6
DOGSL_1
 62
     1
 10
3562.662109375
 20
1012.890625
 11
3564.0307617188
 21
1014.2590942383
  0
LINE
  8
DOGSV_6
  6
DOGSL_1
 62
     1
 10
3576.1750488281
 20
1012.1381835938
 11
3562.662109375
 21
1012.1381835938
  0
LINE
  8
DOGSV_6
  6
DOGSL_1
 62
     1
 10
3567.4118652344
 20
1014.2590942383
 11
3562.662109375
 21
1014.2590942383
  0
LINE
  8
DOGSV_6
  6
DOGSL_1
 62
     1
 10
3576.1750488281
 20
1014.8178710938
 11
3567.4118652344
 21
1014.8178710938
  0
LINE
  8
DOGSV_6
  6
DOGSL_1
 62
     1
 10
3576.1750488281
 20
1018.9834594727
 11
3567.4118652344
 21
1018.9834594727
  0
LINE
  8
DOGSV_6
  6
DOGSL_1
 62
     1
 10
3568.3010253906
 20
1014.8178710938
 11
3568.3010253906
 21
1018.9834594727
  0
LINE
  8
DOGSV_6
  6
DOGSL_1
 62
     1
 10
3569.0883789062
 20
1015.3004760742
 11
3569.0883789062
 21
1018.5008544922
  0
LINE
  8
DOGSV_6
  6
DOGSL_1
 62
     1
 10
3569.8757324219
 20
1014.8178710938
 11
3569.8757324219
 21
1018.9834594727
  0
LINE
  8
DOGSV_6
  6
DOGSL_1
 62
     1
 10
3570.6630859375
 20
1015.3004760742
 11
3570.6630859375
 21
1018.5008544922
  0
LINE
  8
DOGSV_6
  6
DOGSL_1
 62
     1
 10
3571.4504394531
 20
1014.8178710938
 11
3571.4504394531
 21
1018.9834594727
  0
LINE
  8
DOGSV_6
  6
DOGSL_1
 62
     1
 10
3572.2380371094
 20
1015.3004760742
 11
3572.2380371094
 21
1018.5008544922
  0
LINE
  8
DOGSV_6
  6
DOGSL_1
 62
     1
 10
3573.025390625
 20
1014.8178710938
 11
3573.025390625
 21
1018.9834594727
  0
LINE
  8
DOGSV_6
  6
DOGSL_1
 62
     1
 10
3573.8127441406
 20
1018.5008544922
 11
3573.8127441406
 21
1015.3004760742
  0
LINE
  8
DOGSV_6
  6
DOGSL_1
 62
     1
 10
3574.6000976562
 20
1014.8178710938
 11
3574.6000976562
 21
1018.9834594727
  0
LINE
  8
DOGSV_6
  6
DOGSL_1
 62
     1
 10
3575.3874511719
 20
1015.3004760742
 11
3575.3874511719
 21
1018.5008544922
  0
LINE
  8
DOGSV_6
  6
DOGSL_1
 62
     1
 10
3576.1750488281
 20
1021.6632080078
 11
3575.3620605469
 21
1021.6632080078
  0
LINE
  8
DOGSV_6
  6
DOGSL_1
 62
     1
 10
3595.4536132812
 20
1005.5850219727
 11
3595.4536132812
 21
997.0505981445
  0
LINE
  8
DOGSV_6
  6
DOGSL_1
 62
     1
 10
3598.6286621094
 20
1005.5850219727
 11
3598.6286621094
 21
997.0505981445
  0
LINE
  8
DOGSV_6
  6
DOGSL_1
 62
     1
 10
3598.6286621094
 20
997.0505981445
 11
3585.6999511719
 21
997.0505981445
  0
LINE
  8
DOGSV_6
  6
DOGSL_1
 62
     1
 10
3582.5249023438
 20
1001.0510864258
 11
3582.5249023438
 21
1000.2255859375
  0
LINE
  8
DOGSV_6
  6
DOGSL_1
 62
     1
 10
3585.6999511719
 20
1001.0510864258
 11
3585.6999511719
 21
997.0505981445
  0
ARC
  8
DOGSV_6
  6
DOGSL_1
 62
     1
 10
3584.1125488281
 20
1001.0511474609
 40
1.5875200033
 50
0.0
 51
180.0
  0
LINE
  8
DOGSV_6
  6
DOGSL_1
 62
     1
 10
3577.7497558594
 20
1072.4377441406
 11
3575.3620605469
 21
1072.4377441406
  0
LINE
  8
DOGSV_6
  6
DOGSL_1
 62
     1
 10
3577.7497558594
 20
1047.0886230469
 11
3575.3620605469
 21
1047.0886230469
  0
LINE
  8
DOGSV_6
  6
DOGSL_1
 62
     1
 10
3578.537109375
 20
1047.0632324219
 11
3576.1750488281
 21
1047.0632324219
  0
LINE
  8
DOGSV_6
  6
DOGSL_1
 62
     1
 10
3578.537109375
 20
1072.4632568359
 11
3576.1750488281
 21
1072.4632568359
  0
LINE
  8
DOGSV_6
  6
DOGSL_1
 62
     1
 10
3582.5249023438
 20
1059.7631835938
 11
3576.1750488281
 21
1059.7631835938
  0
LINE
  8
DOGSV_6
  6
DOGSL_1
 62
     1
 10
3572.8901367188
 20
1099.4506835938
 11
3575.3620605469
 21
1101.9227294922
  0
LINE
  8
DOGSV_6
  6
DOGSL_1
 62
     1
 10
3568.3999023438
 20
1099.4506835938
 11
3575.3620605469
 21
1106.4128417969
  0
LINE
  8
DOGSV_6
  6
DOGSL_1
 62
     1
 10
3567.4118652344
 20
1102.9528808594
 11
3571.8474121094
 21
1107.3881835938
  0
LINE
  8
DOGSV_6
  6
DOGSL_1
 62
     1
 10
3565.236328125
 20
1105.2673339844
 11
3567.3571777344
 21
1107.3881835938
  0
LINE
  8
DOGSV_6
  6
DOGSL_1
 62
     1
 10
3562.662109375
 20
1107.1832275391
 11
3562.8669433594
 21
1107.3881835938
  0
LINE
  8
DOGSV_6
  6
DOGSL_1
 62
     1
 10
3575.3620605469
 20
1072.4377441406
 11
3575.3620605469
 21
1107.3881835938
  0
LINE
  8
DOGSV_6
  6
DOGSL_1
 62
     1
 10
3576.1750488281
 20
1059.7631835938
 11
3576.1750488281
 21
1108.9757080078
  0
LINE
  8
DOGSV_6
  6
DOGSL_1
 62
     1
 10
3567.4118652344
 20
1078.8132324219
 11
3567.4118652344
 21
1105.2673339844
  0
LINE
  8
DOGSV_6
  6
DOGSL_1
 62
     1
 10
3575.3620605469
 20
1068.9952392578
 11
3575.3620605469
 21
1076.3922119141
  0
LINE
  8
DOGSV_6
  6
DOGSL_1
 62
     1
 10
3565.8371582031
 20
1040.7132568359
 11
3565.8371582031
 21
1078.8132324219
  0
LINE
  8
DOGSV_6
  6
DOGSL_1
 62
     1
 10
3575.3620605469
 20
1068.9952392578
 11
3542.6723632812
 21
1068.9952392578
  0
LINE
  8
DOGSV_6
  6
DOGSL_1
 62
     1
 10
3575.3620605469
 20
1070.2585449219
 11
3542.6723632812
 21
1070.2585449219
  0
LINE
  8
DOGSV_6
  6
DOGSL_3
 62
     7
 10
3545.8474121094
 20
1059.7631835938
 11
3565.8371582031
 21
1059.7631835938
  0
LINE
  8
DOGSV_6
  6
DOGSL_1
 62
     1
 10
3567.4118652344
 20
1040.7132568359
 11
3565.8371582031
 21
1040.7132568359
  0
LINE
  8
DOGSV_6
  6
DOGSL_1
 62
     1
 10
3575.3620605469
 20
1076.3922119141
 11
3542.6723632812
 21
1076.3922119141
  0
LINE
  8
DOGSV_6
  6
DOGSL_1
 62
     1
 10
3542.6723632812
 20
1098.5108642578
 11
3541.1484375
 21
1098.5108642578
  0
LINE
  8
DOGSV_6
  6
DOGSL_1
 62
     1
 10
3576.1750488281
 20
1072.4377441406
 11
3576.1750488281
 21
1091.9381103516
  0
LINE
  8
DOGSV_6
  6
DOGSL_1
 62
     1
 10
3567.4118652344
 20
1078.8132324219
 11
3565.8371582031
 21
1078.8132324219
  0
LINE
  8
DOGSV_6
  6
DOGSL_1
 62
     1
 10
3576.1750488281
 20
1074.0843505859
 11
3575.3620605469
 21
1074.0843505859
  0
LINE
  8
DOGSV_6
  6
DOGSL_1
 62
     1
 10
3567.4118652344
 20
1083.5756835938
 11
3575.3620605469
 21
1083.5756835938
  0
LINE
  8
DOGSV_6
  6
DOGSL_1
 62
     1
 10
3576.1750488281
 20
1091.9381103516
 11
3575.3620605469
 21
1091.9381103516
  0
LINE
  8
DOGSV_6
  6
DOGSL_1
 62
     1
 10
3567.4118652344
 20
1099.4506835938
 11
3575.3620605469
 21
1099.4506835938
  0
LINE
  8
DOGSV_6
  6
DOGSL_1
 62
     1
 10
3565.8371582031
 20
1104.7719726562
 11
3545.0029296875
 21
1104.7719726562
  0
LINE
  8
DOGSV_6
  6
DOGSL_1
 62
     1
 10
3542.6723632812
 20
1112.1506347656
 11
3541.1484375
 21
1112.1506347656
  0
LINE
  8
DOGSV_6
  6
DOGSL_1
 62
     1
 10
3575.3620605469
 20
1107.3881835938
 11
3562.662109375
 21
1107.3881835938
  0
LINE
  8
DOGSV_6
  6
DOGSL_1
 62
     1
 10
3567.4118652344
 20
1105.2673339844
 11
3562.662109375
 21
1105.2673339844
  0
LINE
  8
DOGSV_6
  6
DOGSL_1
 62
     1
 10
3577.7497558594
 20
1047.0886230469
 11
3577.7497558594
 21
1072.4377441406
  0
LINE
  8
DOGSV_6
  6
DOGSL_1
 62
     1
 10
3578.537109375
 20
1047.0632324219
 11
3578.537109375
 21
1072.4632568359
  0
LINE
  8
DOGSV_6
  6
DOGSL_1
 62
     1
 10
3602.5249023438
 20
1108.9757080078
 11
3576.1750488281
 21
1108.9757080078
  0
LINE
  8
DOGSV_6
  6
DOGSL_1
 62
     1
 10
3582.5249023438
 20
1005.5850219727
 11
3602.5249023438
 21
1005.5850219727
  0
LINE
  8
DOGSV_6
  6
DOGSL_1
 62
     1
 10
3602.5249023438
 20
1157.3287353516
 11
3612.5249023438
 21
1157.3287353516
  0
LINE
  8
DOGSV_6
  6
DOGSL_1
 62
     1
 10
3602.5249023438
 20
962.1976318359
 11
3612.5249023438
 21
962.1976318359
  0
LINE
  8
DOGSV_6
  6
DOGSL_1
 62
     1
 10
3612.5249023438
 20
962.1976318359
 11
3612.5249023438
 21
1157.3287353516
  0
LINE
  8
DOGSV_6
  6
DOGSL_1
 62
     1
 10
3602.5249023438
 20
962.1976318359
 11
3602.5249023438
 21
1157.3287353516
  0
LINE
  8
DOGSV_6
  6
DOGSL_1
 62
     1
 10
3623.2414550781
 20
1180.763671875
 11
3623.2414550781
 21
938.7627563477
  0
LINE
  8
DOGSV_6
  6
DOGSL_1
 62
     1
 10
3623.2414550781
 20
1180.763671875
 11
3613.2414550781
 21
1180.763671875
  0
LINE
  8
DOGSV_6
  6
DOGSL_1
 62
     1
 10
3623.2414550781
 20
938.7627563477
 11
3613.2414550781
 21
938.7627563477
  0
LINE
  8
DOGSV_6
  6
DOGSL_1
 62
     1
 10
3613.2414550781
 20
1180.763671875
 11
3613.2414550781
 21
938.7627563477
  0
LINE
  8
DOGSV_6
  6
DOGSL_1
 62
     1
 10
3612.525390625
 20
1442.3287353516
 11
3612.525390625
 21
1639.7628173828
  0
LINE
  8
DOGSV_6
  6
DOGSL_1
 62
     1
 10
3612.525390625
 20
1442.3287353516
 11
3602.525390625
 21
1442.3287353516
  0
LINE
  8
DOGSV_6
  6
DOGSL_1
 62
     1
 10
3602.525390625
 20
1639.7629394531
 11
3602.525390625
 21
1442.3287353516
  0
LINE
  8
DOGSV_6
  6
DOGSL_1
 62
     1
 10
527.3713378906
 20
1658.2628173828
 11
617.3713378906
 21
1658.2628173828
  0
LINE
  8
DOGSV_6
  6
DOGSL_1
 62
     1
 10
617.3713378906
 20
1658.2628173828
 11
617.3713378906
 21
1861.2628173828
  0
LINE
  8
DOGSV_6
  6
DOGSL_1
 62
     1
 10
507.371307373
 20
1634.7628173828
 11
507.371307373
 21
1884.7628173828
  0
LINE
  8
DOGSV_6
  6
DOGSL_1
 62
     1
 10
527.3713378906
 20
1658.2628173828
 11
527.3713378906
 21
1861.2628173828
  0
LINE
  8
DOGSV_6
  6
DOGSL_1
 62
     1
 10
507.371307373
 20
1634.7628173828
 11
507.371307373
 21
1884.7628173828
  0
LINE
  8
DOGSV_6
  6
DOGSL_1
 62
     1
 10
497.371307373
 20
1634.7628173828
 11
497.371307373
 21
1884.7628173828
  0
LINE
  8
DOGSV_6
  6
DOGSL_1
 62
     1
 10
617.3713378906
 20
1861.2628173828
 11
527.3713378906
 21
1861.2628173828
  0
LINE
  8
DOGSV_6
  6
DOGSL_1
 62
     1
 10
527.3713378906
 20
1869.7628173828
 11
507.371307373
 21
1869.7628173828
  0
LINE
  8
DOGSV_6
  6
DOGSL_1
 62
     1
 10
527.3713378906
 20
1649.7628173828
 11
507.371307373
 21
1649.7628173828
  0
LINE
  8
DOGSV_6
  6
DOGSL_1
 62
     1
 10
497.371307373
 20
1634.7628173828
 11
507.371307373
 21
1634.7628173828
  0
LINE
  8
DOGSV_6
  6
DOGSL_1
 62
     1
 10
527.3713378906
 20
1759.7628173828
 11
527.3713378906
 21
1649.7628173828
  0
LINE
  8
DOGSV_6
  6
DOGSL_1
 62
     1
 10
527.3713378906
 20
1649.7628173828
 11
527.3713378906
 21
1869.7628173828
  0
LINE
  8
DOGSV_6
  6
DOGSL_1
 62
     1
 10
507.371307373
 20
1884.7628173828
 11
497.371307373
 21
1884.7628173828
  0
LINE
  8
DOGSV_6
  6
DOGSL_3
 62
     3
 10
527.3713378906
 20
1759.7628173828
 11
538.6636962891
 21
1759.7628173828
  0
LINE
  8
DOGSV_6
  6
DOGSL_1
 62
     1
 10
2098.2258300781
 20
1614.3399658203
 11
2094.7297363281
 21
1614.1722412109
  0
LINE
  8
DOGSV_6
  6
DOGSL_1
 62
     1
 10
2098.5874023438
 20
1606.7985839844
 11
2098.2258300781
 21
1614.3399658203
  0
LINE
  8
DOGSV_6
  6
DOGSL_1
 62
     1
 10
2070.7297363281
 20
1608.265625
 11
2070.3439941406
 21
1616.3051757812
  0
ARC
  8
DOGSV_6
  6
DOGSL_1
 62
     1
 10
2072.7272949219
 20
1608.3614501953
 40
2.0000157356
 50
182.7454833984
 51
272.7453613281
  0
LINE
  8
DOGSV_6
  6
DOGSL_1
 62
     1
 10
2070.3439941406
 20
1616.3051757812
 11
2068.3464355469
 21
1616.2093505859
  0
LINE
  8
DOGSV_6
  6
DOGSL_1
 62
     1
 10
2093.0554199219
 20
1607.3342285156
 11
2072.8232421875
 21
1606.3637695312
  0
LINE
  8
DOGSV_6
  6
DOGSL_1
 62
     1
 10
2098.5874023438
 20
1606.7985839844
 11
2068.8662109375
 21
1605.373046875
  0
ARC
  8
DOGSV_6
  6
DOGSL_1
 62
     1
 10
2092.9597167969
 20
1609.3319091797
 40
2.0000157356
 50
272.7454833984
 51
2.7456054688
  0
LINE
  8
DOGSV_6
  6
DOGSL_1
 62
     1
 10
2094.9572753906
 20
1609.427734375
 11
2094.7297363281
 21
1614.1722412109
  0
LINE
  8
DOGSV_6
  6
DOGSL_1
 62
     1
 10
2102.8386230469
 20
1607.8033447266
 11
2099.0681152344
 21
1607.6225585938
  0
LINE
  8
DOGSV_6
  6
DOGSL_1
 62
     1
 10
2099.4992675781
 20
1598.6329345703
 11
2099.0681152344
 21
1607.6225585938
  0
LINE
  8
DOGSV_6
  6
DOGSL_1
 62
     1
 10
2099.1215820312
 20
1606.5043945312
 11
2100.1860351562
 21
1607.6761474609
  0
LINE
  8
DOGSV_6
  6
DOGSL_1
 62
     1
 10
2104.181640625
 20
1566.4011230469
 11
2102.8386230469
 21
1607.8033447266
  0
LINE
  8
DOGSV_6
  6
DOGSL_1
 62
     1
 10
2099.3249511719
 20
1602.2667236328
 11
2102.8908691406
 21
1606.1921386719
  0
LINE
  8
DOGSV_6
  6
DOGSL_1
 62
     1
 10
2099.2233886719
 20
1604.3856201172
 11
2102.3049316406
 21
1607.7778320312
  0
LINE
  8
DOGSV_6
  6
DOGSL_1
 62
     1
 10
2130.107421875
 20
1614.1170654297
 11
2116.9226074219
 21
1613.4846191406
  0
LINE
  8
DOGSV_6
  6
DOGSL_1
 62
     1
 10
2122.2189941406
 20
1640.8198242188
 11
2129.7885742188
 21
1483.0012207031
  0
LINE
  8
DOGSV_6
  6
DOGSL_1
 62
     1
 10
2127.9248046875
 20
1647.1003417969
 11
2285.7431640625
 21
1654.669921875
  0
LINE
  8
DOGSV_6
  6
DOGSL_1
 62
     1
 10
2127.0783691406
 20
1620.3291015625
 11
2133.1625976562
 21
1493.4749755859
  0
LINE
  8
DOGSV_6
  6
DOGSL_1
 62
     1
 10
2121.0905761719
 20
1649.7760009766
 11
2123.0573730469
 21
1608.7731933594
  0
LINE
  8
DOGSV_6
  6
DOGSL_1
 62
     1
 10
2127.0783691406
 20
1620.3291015625
 11
2123.2106933594
 21
1620.1435546875
  0
LINE
  8
DOGSV_6
  6
DOGSL_1
 62
     1
 10
2121.0595703125
 20
1608.6773681641
 11
2119.0930175781
 21
1649.6802978516
  0
LINE
  8
DOGSV_6
  6
DOGSL_1
 62
     1
 10
2140.9675292969
 20
1646.5166015625
 11
2140.5935058594
 21
1654.3155517578
  0
LINE
  8
DOGSV_6
  6
DOGSL_1
 62
     1
 10
2143.4868164062
 20
1652.0225830078
 11
2137.9331054688
 21
1651.7562255859
  0
LINE
  8
DOGSV_6
  6
DOGSL_1
 62
     1
 10
2142.3352050781
 20
1653.6993408203
 11
2138.9189453125
 21
1653.5355224609
  0
LINE
  8
DOGSV_6
  6
DOGSL_1
 62
     1
 10
2143.5087890625
 20
1651.5631103516
 11
2143.455078125
 21
1652.6818847656
  0
LINE
  8
DOGSV_6
  6
DOGSL_1
 62
     1
 10
2137.955078125
 20
1651.2967529297
 11
2137.9016113281
 21
1652.4154052734
  0
ARC
  8
DOGSV_6
  6
DOGSL_1
 62
     1
 10
2138.9702148438
 20
1652.4666748047
 40
1.069989562
 50
92.7469940186
 51
182.7469940186
  0
ARC
  8
DOGSV_6
  6
DOGSL_1
 62
     1
 10
2142.3864746094
 20
1652.6306152344
 40
1.069989562
 50
2.7469940186
 51
92.7469940186
  0
LINE
  8
DOGSV_6
  6
DOGSL_1
 62
     1
 10
2127.9248046875
 20
1647.1003417969
 11
2122.2189941406
 21
1640.8198242188
  0
LINE
  8
DOGSV_6
  6
DOGSL_1
 62
     1
 10
2119.5554199219
 20
1619.1673583984
 11
2119.1960449219
 21
1626.6586914062
  0
LINE
  8
DOGSV_6
  6
DOGSL_1
 62
     1
 10
2115.1455078125
 20
1648.4897460938
 11
2105.1569824219
 21
1648.0106201172
  0
LINE
  8
DOGSV_6
  6
DOGSL_1
 62
     1
 10
2119.0930175781
 20
1649.6802978516
 11
2103.111328125
 21
1648.9136962891
  0
CIRCLE
  8
DOGSV_6
  6
DOGSL_1
 62
     1
 10
2109.5834960938
 20
1639.2126464844
 40
2.249984026
  0
ARC
  8
DOGSV_6
  6
DOGSL_1
 62
     1
 10
2109.5834960938
 20
1639.2126464844
 40
6.0000300407
 50
87.2354736328
 51
56.5654602051
  0
LINE
  8
DOGSV_6
  6
DOGSL_1
 62
     1
 10
2118.8605957031
 20
1633.6506347656
 11
2118.2856445312
 21
1645.6369628906
  0
ARC
  8
DOGSV_6
  6
DOGSL_1
 62
     1
 10
2115.2893066406
 20
1645.4931640625
 40
3.00000453
 50
2.7458877563
 51
92.7458877563
  0
LINE
  8
DOGSV_6
  6
DOGSL_1
 62
     1
 10
2103.111328125
 20
1648.9136962891
 11
2100.2585449219
 21
1645.7734375
  0
LINE
  8
DOGSV_6
  6
DOGSL_1
 62
     1
 10
2108.7687988281
 20
1650.3572998047
 11
2114.322265625
 21
1650.6237792969
  0
LINE
  8
DOGSV_6
  6
DOGSL_1
 62
     1
 10
2109.7546386719
 20
1652.1365966797
 11
2113.1706542969
 21
1652.3005371094
  0
LINE
  8
DOGSV_6
  6
DOGSL_1
 62
     1
 10
2108.7907714844
 20
1649.8979492188
 11
2108.7370605469
 21
1651.0166015625
  0
LINE
  8
DOGSV_6
  6
DOGSL_1
 62
     1
 10
2114.3442382812
 20
1650.1643066406
 11
2114.2907714844
 21
1651.2829589844
  0
ARC
  8
DOGSV_6
  6
DOGSL_1
 62
     1
 10
2113.2219238281
 20
1651.2318115234
 40
1.069989562
 50
2.7469940186
 51
92.7469940186
  0
ARC
  8
DOGSV_6
  6
DOGSL_1
 62
     1
 10
2109.8059082031
 20
1651.0678710938
 40
1.069989562
 50
92.7469940186
 51
182.7469940186
  0
LINE
  8
DOGSV_6
  6
DOGSL_1
 62
     1
 10
2110.8308105469
 20
1644.0989990234
 11
2110.7888183594
 21
1644.9770507812
  0
LINE
  8
DOGSV_6
  6
DOGSL_1
 62
     1
 10
2112.8684082031
 20
1644.1967773438
 11
2112.8264160156
 21
1645.0747070312
  0
LINE
  8
DOGSV_6
  6
DOGSL_1
 62
     1
 10
2113.2395019531
 20
1644.6049804688
 11
2113.2160644531
 21
1645.0933837891
  0
LINE
  8
DOGSV_6
  6
DOGSL_1
 62
     1
 10
2110.4226074219
 20
1644.4698486328
 11
2110.3991699219
 21
1644.9582519531
  0
LINE
  8
DOGSV_6
  6
DOGSL_1
 62
     1
 10
2110.8308105469
 20
1644.0989990234
 11
2112.8684082031
 21
1644.1967773438
  0
LINE
  8
DOGSV_6
  6
DOGSL_1
 62
     1
 10
2110.4226074219
 20
1644.4698486328
 11
2113.2395019531
 21
1644.6049804688
  0
LINE
  8
DOGSV_6
  6
DOGSL_1
 62
     1
 10
2110.8308105469
 20
1644.0989990234
 11
2110.4226074219
 21
1644.4698486328
  0
LINE
  8
DOGSV_6
  6
DOGSL_1
 62
     1
 10
2112.8684082031
 20
1644.1967773438
 11
2113.2395019531
 21
1644.6049804688
  0
LINE
  8
DOGSV_6
  6
DOGSL_1
 62
     1
 10
2114.9760742188
 20
1647.8458251953
 11
2108.3837890625
 21
1647.5296630859
  0
LINE
  8
DOGSV_6
  6
DOGSL_1
 62
     1
 10
2113.7053222656
 20
1645.1168212891
 11
2111.8076171875
 21
1645.0258789062
  0
LINE
  8
DOGSV_6
  6
DOGSL_1
 62
     1
 10
2113.7053222656
 20
1645.1168212891
 11
2113.7924804688
 21
1647.3319091797
  0
ARC
  8
DOGSV_6
  6
DOGSL_1
 62
     1
 10
2114.2922363281
 20
1647.3125
 40
0.5000164509
 50
92.743927002
 51
177.7764282227
  0
LINE
  8
DOGSV_6
  6
DOGSL_1
 62
     1
 10
2109.9096679688
 20
1644.9348144531
 11
2111.8076171875
 21
1645.0258789062
  0
LINE
  8
DOGSV_6
  6
DOGSL_1
 62
     1
 10
2109.9096679688
 20
1644.9348144531
 11
2109.6110839844
 21
1647.1313476562
  0
ARC
  8
DOGSV_6
  6
DOGSL_1
 62
     1
 10
2109.1154785156
 20
1647.0642089844
 40
0.5000143647
 50
7.7140808105
 51
92.7465820312
  0
LINE
  8
DOGSV_6
  6
DOGSL_1
 62
     1
 10
2108.3837890625
 20
1647.5296630859
 11
2108.3532714844
 21
1648.1639404297
  0
LINE
  8
DOGSV_6
  6
DOGSL_1
 62
     1
 10
2114.9760742188
 20
1647.8458251953
 11
2114.9458007812
 21
1648.4801025391
  0
LINE
  8
DOGSV_6
  6
DOGSL_1
 62
     1
 10
2111.8879394531
 20
1643.3505859375
 11
2111.3876953125
 21
1653.7823486328
  0
LINE
  8
DOGSV_6
  6
DOGSL_1
 62
     1
 10
2106.607421875
 20
1649.0814208984
 11
2106.5732421875
 21
1649.7915039062
  0
LINE
  8
DOGSV_6
  6
DOGSL_1
 62
     1
 10
2104.0695800781
 20
1628.9366455078
 11
2100.9291992188
 21
1631.7894287109
  0
LINE
  8
DOGSV_6
  6
DOGSL_1
 62
     1
 10
2116.0556640625
 20
1629.5115966797
 11
2104.0695800781
 21
1628.9366455078
  0
LINE
  8
DOGSV_6
  6
DOGSL_1
 62
     1
 10
2116.0078125
 20
1630.5103759766
 11
2106.0192871094
 21
1630.0313720703
  0
ARC
  8
DOGSV_6
  6
DOGSL_1
 62
     1
 10
2115.8640136719
 20
1633.5069580078
 40
3.00000453
 50
272.7459106445
 51
2.7458965778
  0
ARC
  8
DOGSV_6
  6
DOGSL_1
 62
     1
 10
2116.1994628906
 20
1626.5150146484
 40
3.00000453
 50
2.7458877563
 51
92.7458877563
  0
LINE
  8
DOGSV_6
  6
DOGSL_1
 62
     1
 10
2100.9291992188
 20
1631.7894287109
 11
2100.2585449219
 21
1645.7734375
  0
LINE
  8
DOGSV_6
  6
DOGSL_1
 62
     1
 10
2105.1569824219
 20
1648.0106201172
 11
2105.1091308594
 21
1649.0095214844
  0
LINE
  8
DOGSV_6
  6
DOGSL_1
 62
     1
 10
2106.0192871094
 20
1630.0313720703
 11
2106.0671386719
 21
1629.0324707031
  0
ARC
  8
DOGSV_6
  6
DOGSL_1
 62
     1
 10
2119.4770507812
 20
1639.6871337891
 40
2.9369072914
 50
110.6902313232
 51
254.7997131348
  0
LINE
  8
DOGSV_6
  6
DOGSL_1
 62
     1
 10
2120.5541992188
 20
1619.2152099609
 11
2119.5554199219
 21
1619.1673583984
  0
ARC
  8
DOGSV_6
  6
DOGSL_1
 62
     1
 10
2120.2436523438
 20
1623.7055664062
 40
2.9369072914
 50
110.6902313232
 51
254.7997131348
  0
LINE
  8
DOGSV_6
  6
DOGSL_1
 62
     1
 10
2109.9821777344
 20
1630.8992919922
 11
2109.2419433594
 21
1646.3344726562
  0
LINE
  8
DOGSV_6
  6
DOGSL_1
 62
     1
 10
2123.9897460938
 20
1639.9035644531
 11
2101.8151855469
 21
1638.8400878906
  0
LINE
  8
DOGSV_6
  6
DOGSL_1
 62
     1
 10
2124.7563476562
 20
1623.9219970703
 11
2115.7685546875
 21
1623.4908447266
  0
LINE
  8
DOGSV_6
  6
DOGSL_1
 62
     1
 10
2120.3955078125
 20
1622.521484375
 11
2122.3933105469
 21
1622.6173095703
  0
LINE
  8
DOGSV_6
  6
DOGSL_1
 62
     1
 10
2120.2814941406
 20
1624.8986816406
 11
2122.279296875
 21
1624.9945068359
  0
LINE
  8
DOGSV_6
  6
DOGSL_1
 62
     1
 10
2119.6291503906
 20
1638.5030517578
 11
2121.6267089844
 21
1638.5988769531
  0
LINE
  8
DOGSV_6
  6
DOGSL_1
 62
     1
 10
2119.5151367188
 20
1640.8803710938
 11
2121.5126953125
 21
1640.9761962891
  0
LINE
  8
DOGSV_6
  6
DOGSL_1
 62
     1
 10
2119.0930175781
 20
1649.6802978516
 11
2294.2875976562
 21
1658.0831298828
  0
LINE
  8
DOGSV_6
  6
DOGSL_1
 62
     1
 10
2106.5732421875
 20
1649.7915039062
 11
2306.7392578125
 21
1659.3922119141
  0
LINE
  8
DOGSV_6
  6
DOGSL_1
 62
     1
 10
2173.9296875
 20
1648.0975341797
 11
2173.5556640625
 21
1655.8966064453
  0
LINE
  8
DOGSV_6
  6
DOGSL_1
 62
     1
 10
2209.4108886719
 20
1655.1845703125
 11
2203.857421875
 21
1654.9182128906
  0
LINE
  8
DOGSV_6
  6
DOGSL_1
 62
     1
 10
2208.2592773438
 20
1656.861328125
 11
2204.8432617188
 21
1656.6973876953
  0
LINE
  8
DOGSV_6
  6
DOGSL_1
 62
     1
 10
2209.4331054688
 20
1654.7250976562
 11
2209.3793945312
 21
1655.84375
  0
LINE
  8
DOGSV_6
  6
DOGSL_1
 62
     1
 10
2203.8793945312
 20
1654.4587402344
 11
2203.8256835938
 21
1655.5773925781
  0
ARC
  8
DOGSV_6
  6
DOGSL_1
 62
     1
 10
2204.89453125
 20
1655.6286621094
 40
1.069989562
 50
92.7469940186
 51
182.7469940186
  0
ARC
  8
DOGSV_6
  6
DOGSL_1
 62
     1
 10
2208.310546875
 20
1655.7924804688
 40
1.069989562
 50
2.7469940186
 51
92.7469940186
  0
LINE
  8
DOGSV_6
  6
DOGSL_1
 62
     1
 10
2176.4489746094
 20
1653.603515625
 11
2170.8952636719
 21
1653.3371582031
  0
LINE
  8
DOGSV_6
  6
DOGSL_1
 62
     1
 10
2175.2971191406
 20
1655.2802734375
 11
2171.8811035156
 21
1655.1164550781
  0
LINE
  8
DOGSV_6
  6
DOGSL_1
 62
     1
 10
2176.4709472656
 20
1653.1440429688
 11
2176.4172363281
 21
1654.2628173828
  0
LINE
  8
DOGSV_6
  6
DOGSL_1
 62
     1
 10
2170.9172363281
 20
1652.8776855469
 11
2170.8635253906
 21
1653.9964599609
  0
ARC
  8
DOGSV_6
  6
DOGSL_1
 62
     1
 10
2171.9323730469
 20
1654.0477294922
 40
1.069989562
 50
92.7469940186
 51
182.7469940186
  0
ARC
  8
DOGSV_6
  6
DOGSL_1
 62
     1
 10
2175.3483886719
 20
1654.2115478516
 40
1.069989562
 50
2.7469940186
 51
92.7469940186
  0
LINE
  8
DOGSV_6
  6
DOGSL_3
 62
     3
 10
2206.2275390625
 20
1663.5302734375
 11
2215.9558105469
 21
1460.7037353516
  0
LINE
  8
DOGSV_6
  6
DOGSL_1
 62
     1
 10
2193.7077636719
 20
1648.1531982422
 11
2220.1613769531
 21
1649.4219970703
  0
LINE
  8
DOGSV_6
  6
DOGSL_1
 62
     1
 10
2187.1235351562
 20
1651.8419189453
 11
2226.3623046875
 21
1653.7239990234
  0
LINE
  8
DOGSV_6
  6
DOGSL_1
 62
     1
 10
2193.7778320312
 20
1659.2192382812
 11
2219.0327148438
 21
1660.4305419922
  0
LINE
  8
DOGSV_6
  6
DOGSL_1
 62
     1
 10
2193.3022460938
 20
1658.6958007812
 11
2193.5634765625
 21
1653.2520751953
  0
LINE
  8
DOGSV_6
  6
DOGSL_1
 62
     1
 10
2219.5561523438
 20
1659.955078125
 11
2219.8171386719
 21
1654.5113525391
  0
LINE
  8
DOGSV_6
  6
DOGSL_1
 62
     1
 10
2193.1843261719
 20
1648.6285400391
 11
2193.0168457031
 21
1652.1246337891
  0
LINE
  8
DOGSV_6
  6
DOGSL_1
 62
     1
 10
2220.6369628906
 20
1649.9453125
 11
2220.4692382812
 21
1653.4412841797
  0
ARC
  8
DOGSV_6
  6
DOGSL_1
 62
     1
 10
2193.6838378906
 20
1648.6525878906
 40
0.5000143647
 50
182.7465820312
 51
272.7465820312
  0
ARC
  8
DOGSV_6
  6
DOGSL_1
 62
     1
 10
2220.1374511719
 20
1649.9213867188
 40
0.5000143647
 50
272.7465820312
 51
2.7465863228
  0
ARC
  8
DOGSV_6
  6
DOGSL_1
 62
     1
 10
2193.8017578125
 20
1658.7198486328
 40
0.5000143647
 50
92.7465820312
 51
182.7465820312
  0
ARC
  8
DOGSV_6
  6
DOGSL_1
 62
     1
 10
2219.056640625
 20
1659.9310302734
 40
0.5000143647
 50
2.7465820312
 51
92.7465820312
  0
LINE
  8
DOGSV_6
  6
DOGSL_1
 62
     1
 10
2196.7004394531
 20
1640.0322265625
 11
2217.9599609375
 21
1641.0518798828
  0
LINE
  8
DOGSV_6
  6
DOGSL_1
 62
     1
 10
2196.7004394531
 20
1640.0322265625
 11
2196.3049316406
 21
1648.2777099609
  0
LINE
  8
DOGSV_6
  6
DOGSL_1
 62
     1
 10
2217.9599609375
 20
1641.0518798828
 11
2217.564453125
 21
1649.2973632812
  0
LINE
  8
DOGSV_6
  6
DOGSL_1
 62
     1
 10
2192.8203125
 20
1653.7170410156
 11
2187.2265625
 21
1653.4487304688
  0
LINE
  8
DOGSV_6
  6
DOGSL_1
 62
     1
 10
2187.4365234375
 20
1658.4645996094
 11
2187.6762695312
 21
1653.4703369141
  0
LINE
  8
DOGSV_6
  6
DOGSL_1
 62
     1
 10
2192.1311035156
 20
1658.6896972656
 11
2192.3708496094
 21
1653.6954345703
  0
LINE
  8
DOGSV_6
  6
DOGSL_1
 62
     1
 10
2192.1311035156
 20
1658.6896972656
 11
2187.4365234375
 21
1658.4645996094
  0
LINE
  8
DOGSV_6
  6
DOGSL_1
 62
     1
 10
2190.0234375
 20
1653.5828857422
 11
2189.7839355469
 21
1658.5771484375
  0
LINE
  8
DOGSV_6
  6
DOGSL_1
 62
     1
 10
2187.2265625
 20
1653.4487304688
 11
2187.2507324219
 21
1652.9493408203
  0
LINE
  8
DOGSV_6
  6
DOGSL_1
 62
     1
 10
2192.8203125
 20
1653.7170410156
 11
2192.8442382812
 21
1653.2176513672
  0
LINE
  8
DOGSV_6
  6
DOGSL_1
 62
     1
 10
2226.1059570312
 20
1655.3134765625
 11
2220.5124511719
 21
1655.0452880859
  0
LINE
  8
DOGSV_6
  6
DOGSL_1
 62
     1
 10
2220.7224121094
 20
1660.0610351562
 11
2220.9619140625
 21
1655.0667724609
  0
LINE
  8
DOGSV_6
  6
DOGSL_1
 62
     1
 10
2220.5124511719
 20
1655.0452880859
 11
2220.5363769531
 21
1654.5457763672
  0
LINE
  8
DOGSV_6
  6
DOGSL_1
 62
     1
 10
2187.1235351562
 20
1651.8419189453
 11
2187.0708007812
 21
1652.9406738281
  0
LINE
  8
DOGSV_6
  6
DOGSL_1
 62
     1
 10
2158.69140625
 20
1614.4444580078
 11
2133.2912597656
 21
1614.4444580078
  0
LINE
  8
DOGSV_6
  6
DOGSL_1
 62
     1
 10
2133.2912597656
 20
1589.0444335938
 11
2133.2912597656
 21
1614.4444580078
  0
CIRCLE
  8
DOGSV_6
  6
DOGSL_1
 62
     1
 10
2155.5163574219
 20
1611.26953125
 40
1.5
  0
CIRCLE
  8
DOGSV_6
  6
DOGSL_1
 62
     1
 10
2136.4663085938
 20
1611.26953125
 40
1.5
  0
LINE
  8
DOGSV_6
  6
DOGSL_1
 62
     1
 10
2225.4169921875
 20
1660.2862548828
 11
2225.6564941406
 21
1655.2919921875
  0
LINE
  8
DOGSV_6
  6
DOGSL_1
 62
     1
 10
2225.4169921875
 20
1660.2862548828
 11
2220.7224121094
 21
1660.0610351562
  0
LINE
  8
DOGSV_6
  6
DOGSL_1
 62
     1
 10
2223.3090820312
 20
1655.1793212891
 11
2223.0695800781
 21
1660.1735839844
  0
LINE
  8
DOGSV_6
  6
DOGSL_1
 62
     1
 10
2226.1059570312
 20
1655.3134765625
 11
2226.1298828125
 21
1654.8140869141
  0
LINE
  8
DOGSV_6
  6
DOGSL_1
 62
     1
 10
2226.3623046875
 20
1653.7239990234
 11
2226.3098144531
 21
1654.8227539062
  0
LINE
  8
DOGSV_6
  6
DOGSL_1
 62
     1
 10
2286.4782714844
 20
1626.8231201172
 11
2299.6630859375
 21
1627.4555664062
  0
LINE
  8
DOGSV_6
  6
DOGSL_1
 62
     1
 10
2288.8989257812
 20
1633.2965087891
 11
2292.7663574219
 21
1633.4820556641
  0
LINE
  8
DOGSV_6
  6
DOGSL_1
 62
     1
 10
2292.2897949219
 20
1657.9873046875
 11
2301.2775878906
 21
1470.6027832031
  0
LINE
  8
DOGSV_6
  6
DOGSL_1
 62
     1
 10
2294.2875976562
 20
1658.0831298828
 11
2303.2751464844
 21
1470.6986083984
  0
LINE
  8
DOGSV_6
  6
DOGSL_1
 62
     1
 10
2292.0239257812
 20
1648.9642333984
 11
2299.5932617188
 21
1491.1456298828
  0
LINE
  8
DOGSV_6
  6
DOGSL_1
 62
     1
 10
2239.8540039062
 20
1651.2595214844
 11
2239.4799804688
 21
1659.0584716797
  0
LINE
  8
DOGSV_6
  6
DOGSL_1
 62
     1
 10
2272.8161621094
 20
1652.8404541016
 11
2272.4418945312
 21
1660.6395263672
  0
LINE
  8
DOGSV_6
  6
DOGSL_1
 62
     1
 10
2275.3352050781
 20
1658.3464355469
 11
2269.7814941406
 21
1658.080078125
  0
LINE
  8
DOGSV_6
  6
DOGSL_1
 62
     1
 10
2274.18359375
 20
1660.0231933594
 11
2270.767578125
 21
1659.859375
  0
LINE
  8
DOGSV_6
  6
DOGSL_1
 62
     1
 10
2275.3571777344
 20
1657.8869628906
 11
2275.3034667969
 21
1659.0057373047
  0
LINE
  8
DOGSV_6
  6
DOGSL_1
 62
     1
 10
2269.8037109375
 20
1657.6206054688
 11
2269.75
 21
1658.7393798828
  0
ARC
  8
DOGSV_6
  6
DOGSL_1
 62
     1
 10
2270.8186035156
 20
1658.7906494141
 40
1.069989562
 50
92.7469940186
 51
182.7469940186
  0
ARC
  8
DOGSV_6
  6
DOGSL_1
 62
     1
 10
2274.2348632812
 20
1658.9544677734
 40
1.069989562
 50
2.7469940186
 51
92.7469940186
  0
LINE
  8
DOGSV_6
  6
DOGSL_1
 62
     1
 10
2242.373046875
 20
1656.7655029297
 11
2236.8195800781
 21
1656.4991455078
  0
LINE
  8
DOGSV_6
  6
DOGSL_1
 62
     1
 10
2241.2214355469
 20
1658.4422607422
 11
2237.8054199219
 21
1658.2784423828
  0
LINE
  8
DOGSV_6
  6
DOGSL_1
 62
     1
 10
2242.3950195312
 20
1656.3060302734
 11
2242.3415527344
 21
1657.4248046875
  0
LINE
  8
DOGSV_6
  6
DOGSL_1
 62
     1
 10
2236.8415527344
 20
1656.0396728516
 11
2236.7878417969
 21
1657.1584472656
  0
ARC
  8
DOGSV_6
  6
DOGSL_1
 62
     1
 10
2237.8566894531
 20
1657.2097167969
 40
1.069989562
 50
92.7469940186
 51
182.7469940186
  0
ARC
  8
DOGSV_6
  6
DOGSL_1
 62
     1
 10
2241.2727050781
 20
1657.3735351562
 40
1.069989562
 50
2.7469940186
 51
92.7469940186
  0
LINE
  8
DOGSV_6
  6
DOGSL_1
 62
     1
 10
2292.0239257812
 20
1648.9642333984
 11
2285.7431640625
 21
1654.669921875
  0
LINE
  8
DOGSV_6
  6
DOGSL_1
 62
     1
 10
2296.7475585938
 20
1627.6661376953
 11
2296.3884277344
 21
1635.1574707031
  0
LINE
  8
DOGSV_6
  6
DOGSL_1
 62
     1
 10
2298.3308105469
 20
1657.2760009766
 11
2308.3193359375
 21
1657.7550048828
  0
LINE
  8
DOGSV_6
  6
DOGSL_1
 62
     1
 10
2294.2875976562
 20
1658.0831298828
 11
2310.2692871094
 21
1658.8497314453
  0
CIRCLE
  8
DOGSV_6
  6
DOGSL_1
 62
     1
 10
2304.7551269531
 20
1648.5737304688
 40
2.249984026
  0
ARC
  8
DOGSV_6
  6
DOGSL_1
 62
     1
 10
2304.7551269531
 20
1648.5737304688
 40
6.0000362396
 50
128.926940918
 51
98.2569274902
  0
LINE
  8
DOGSV_6
  6
DOGSL_1
 62
     1
 10
2296.0529785156
 20
1642.1494140625
 11
2295.4780273438
 21
1654.1356201172
  0
ARC
  8
DOGSV_6
  6
DOGSL_1
 62
     1
 10
2298.474609375
 20
1654.2794189453
 40
3.00000453
 50
92.7458953857
 51
182.7458953857
  0
LINE
  8
DOGSV_6
  6
DOGSL_1
 62
     1
 10
2310.2692871094
 20
1658.8497314453
 11
2313.4094238281
 21
1655.9968261719
  0
LINE
  8
DOGSV_6
  6
DOGSL_1
 62
     1
 10
2304.4997558594
 20
1659.7453613281
 11
2298.9460449219
 21
1659.4790039062
  0
LINE
  8
DOGSV_6
  6
DOGSL_1
 62
     1
 10
2303.3479003906
 20
1661.4221191406
 11
2299.9318847656
 21
1661.2583007812
  0
LINE
  8
DOGSV_6
  6
DOGSL_1
 62
     1
 10
2304.5217285156
 20
1659.2858886719
 11
2304.4680175781
 21
1660.4045410156
  0
LINE
  8
DOGSV_6
  6
DOGSL_1
 62
     1
 10
2298.9680175781
 20
1659.01953125
 11
2298.9145507812
 21
1660.1381835938
  0
ARC
  8
DOGSV_6
  6
DOGSL_1
 62
     1
 10
2299.9831542969
 20
1660.189453125
 40
1.069989562
 50
92.7469940186
 51
182.7469940186
  0
ARC
  8
DOGSV_6
  6
DOGSL_1
 62
     1
 10
2303.3991699219
 20
1660.3532714844
 40
1.069989562
 50
2.7469940186
 51
92.7469940186
  0
LINE
  8
DOGSV_6
  6
DOGSL_1
 62
     1
 10
2303.0458984375
 20
1653.3182373047
 11
2303.00390625
 21
1654.1962890625
  0
LINE
  8
DOGSV_6
  6
DOGSL_1
 62
     1
 10
2301.0083007812
 20
1653.2205810547
 11
2300.9660644531
 21
1654.0985107422
  0
LINE
  8
DOGSV_6
  6
DOGSL_1
 62
     1
 10
2300.6000976562
 20
1653.5914306641
 11
2300.5766601562
 21
1654.0798339844
  0
LINE
  8
DOGSV_6
  6
DOGSL_1
 62
     1
 10
2303.4167480469
 20
1653.7265625
 11
2303.3933105469
 21
1654.2149658203
  0
LINE
  8
DOGSV_6
  6
DOGSL_1
 62
     1
 10
2303.0458984375
 20
1653.3182373047
 11
2301.0083007812
 21
1653.2205810547
  0
LINE
  8
DOGSV_6
  6
DOGSL_1
 62
     1
 10
2303.4167480469
 20
1653.7265625
 11
2300.6000976562
 21
1653.5914306641
  0
LINE
  8
DOGSV_6
  6
DOGSL_1
 62
     1
 10
2303.0458984375
 20
1653.3182373047
 11
2303.4167480469
 21
1653.7265625
  0
LINE
  8
DOGSV_6
  6
DOGSL_1
 62
     1
 10
2301.0083007812
 20
1653.2205810547
 11
2300.6000976562
 21
1653.5914306641
  0
LINE
  8
DOGSV_6
  6
DOGSL_1
 62
     1
 10
2298.5610351562
 20
1656.6512451172
 11
2305.1535644531
 21
1656.9674072266
  0
LINE
  8
DOGSV_6
  6
DOGSL_1
 62
     1
 10
2300.0871582031
 20
1654.0563964844
 11
2301.9848632812
 21
1654.1474609375
  0
LINE
  8
DOGSV_6
  6
DOGSL_1
 62
     1
 10
2300.0871582031
 20
1654.0563964844
 11
2299.7883300781
 21
1656.2529296875
  0
ARC
  8
DOGSV_6
  6
DOGSL_1
 62
     1
 10
2299.2927246094
 20
1656.1857910156
 40
0.5000143647
 50
7.7140808105
 51
92.7465820312
  0
LINE
  8
DOGSV_6
  6
DOGSL_1
 62
     1
 10
2303.8828125
 20
1654.2384033203
 11
2301.9848632812
 21
1654.1474609375
  0
LINE
  8
DOGSV_6
  6
DOGSL_1
 62
     1
 10
2303.8828125
 20
1654.2384033203
 11
2303.9699707031
 21
1656.4534912109
  0
ARC
  8
DOGSV_6
  6
DOGSL_1
 62
     1
 10
2304.4694824219
 20
1656.4340820312
 40
0.5000164509
 50
92.743927002
 51
177.7764282227
  0
LINE
  8
DOGSV_6
  6
DOGSL_1
 62
     1
 10
2305.1535644531
 20
1656.9674072266
 11
2305.123046875
 21
1657.6016845703
  0
LINE
  8
DOGSV_6
  6
DOGSL_1
 62
     1
 10
2298.5610351562
 20
1656.6512451172
 11
2298.5307617188
 21
1657.2855224609
  0
LINE
  8
DOGSV_6
  6
DOGSL_1
 62
     1
 10
2302.0654296875
 20
1652.4721679688
 11
2301.5649414062
 21
1662.9039306641
  0
LINE
  8
DOGSV_6
  6
DOGSL_1
 62
     1
 10
2306.7731933594
 20
1658.6820068359
 11
2306.7392578125
 21
1659.3922119141
  0
LINE
  8
DOGSV_6
  6
DOGSL_1
 62
     1
 10
2290.1987304688
 20
1647.8756103516
 11
2312.373046875
 21
1648.9390869141
  0
LINE
  8
DOGSV_6
  6
DOGSL_1
 62
     1
 10
2311.2272949219
 20
1638.8726806641
 11
2314.080078125
 21
1642.0129394531
  0
LINE
  8
DOGSV_6
  6
DOGSL_1
 62
     1
 10
2299.2412109375
 20
1638.2977294922
 11
2311.2272949219
 21
1638.8726806641
  0
LINE
  8
DOGSV_6
  6
DOGSL_1
 62
     1
 10
2299.193359375
 20
1639.2966308594
 11
2309.181640625
 21
1639.7756347656
  0
ARC
  8
DOGSV_6
  6
DOGSL_1
 62
     1
 10
2299.0495605469
 20
1642.2932128906
 40
3.00000453
 50
182.745880127
 51
272.745880127
  0
ARC
  8
DOGSV_6
  6
DOGSL_1
 62
     1
 10
2299.384765625
 20
1635.3011474609
 40
3.00000453
 50
92.7458953857
 51
182.7458953857
  0
LINE
  8
DOGSV_6
  6
DOGSL_1
 62
     1
 10
2314.080078125
 20
1642.0129394531
 11
2313.4094238281
 21
1655.9968261719
  0
LINE
  8
DOGSV_6
  6
DOGSL_1
 62
     1
 10
2308.3193359375
 20
1657.7550048828
 11
2308.271484375
 21
1658.75390625
  0
LINE
  8
DOGSV_6
  6
DOGSL_1
 62
     1
 10
2309.181640625
 20
1639.7756347656
 11
2309.2297363281
 21
1638.7768554688
  0
LINE
  8
DOGSV_6
  6
DOGSL_1
 62
     1
 10
2294.8237304688
 20
1646.9060058594
 11
2292.8259277344
 21
1646.8101806641
  0
LINE
  8
DOGSV_6
  6
DOGSL_1
 62
     1
 10
2294.7097167969
 20
1649.2833251953
 11
2292.7119140625
 21
1649.1875
  0
ARC
  8
DOGSV_6
  6
DOGSL_1
 62
     1
 10
2294.8615722656
 20
1648.0992431641
 40
2.9369072914
 50
290.6902160645
 51
74.7997055054
  0
LINE
  8
DOGSV_6
  6
DOGSL_1
 62
     1
 10
2290.9650878906
 20
1631.8939208984
 11
2300.1030273438
 21
1632.3321533203
  0
LINE
  8
DOGSV_6
  6
DOGSL_1
 62
     1
 10
2295.7487792969
 20
1627.6181640625
 11
2296.7475585938
 21
1627.6661376953
  0
ARC
  8
DOGSV_6
  6
DOGSL_1
 62
     1
 10
2295.6281738281
 20
1632.1175537109
 40
2.9369072914
 50
290.6902160645
 51
74.7997055054
  0
LINE
  8
DOGSV_6
  6
DOGSL_1
 62
     1
 10
2295.5900878906
 20
1630.9244384766
 11
2293.5925292969
 21
1630.8286132812
  0
LINE
  8
DOGSV_6
  6
DOGSL_1
 62
     1
 10
2295.4760742188
 20
1633.3016357422
 11
2293.478515625
 21
1633.2058105469
  0
LINE
  8
DOGSV_6
  6
DOGSL_1
 62
     1
 10
2305.1538085938
 20
1640.2603759766
 11
2304.4135742188
 21
1655.6956787109
  0
LINE
  8
DOGSV_6
  6
DOGSL_1
 62
     1
 10
2309.181640625
 20
1639.7756347656
 11
2308.3193359375
 21
1657.7550048828
  0
LINE
  8
DOGSV_6
  6
DOGSL_1
 62
     1
 10
2542.5288085938
 20
1606.4605712891
 11
2542.5895996094
 21
1607.2709960938
  0
LINE
  8
DOGSV_6
  6
DOGSL_1
 62
     1
 10
2546.8137207031
 20
1622.0584716797
 11
2545.26953125
 21
1601.4915771484
  0
LINE
  8
DOGSV_6
  6
DOGSL_1
 62
     1
 10
2550.0187988281
 20
1601.1350097656
 11
2551.5629882812
 21
1621.7019042969
  0
LINE
  8
DOGSV_6
  6
DOGSL_1
 62
     1
 10
2558.8432617188
 20
1602.0517578125
 11
2559.259765625
 21
1607.5986328125
  0
LINE
  8
DOGSV_6
  6
DOGSL_1
 62
     1
 10
2545.6252441406
 20
1606.2280273438
 11
2543.294921875
 21
1606.4029541016
  0
LINE
  8
DOGSV_6
  6
DOGSL_1
 62
     1
 10
2543.294921875
 20
1606.4029541016
 11
2543.1201171875
 21
1604.0727539062
  0
ARC
  8
DOGSV_6
  6
DOGSL_3
 62
     3
 10
2888.1540527344
 20
1889.7530517578
 40
250.0000152588
 50
180.5594482422
 51
269.9999694824
  0
LINE
  8
DOGSV_6
  6
DOGSL_1
 62
     1
 10
2564.0090332031
 20
1607.2420654297
 11
2564.9597167969
 21
1619.9064941406
  0
LINE
  8
DOGSV_6
  6
DOGSL_1
 62
     1
 10
2564.9597167969
 20
1619.9064941406
 11
2533.298828125
 21
1622.2835693359
  0
LINE
  8
DOGSV_6
  6
DOGSL_1
 62
     1
 10
2533.298828125
 20
1622.2835693359
 11
2532.3481445312
 21
1609.6192626953
  0
LINE
  8
DOGSV_6
  6
DOGSL_1
 62
     1
 10
2564.0090332031
 20
1607.2420654297
 11
2532.3481445312
 21
1609.6192626953
  0
LINE
  8
DOGSV_6
  6
DOGSL_1
 62
     1
 10
2562.4089355469
 20
1649.5430908203
 11
2540.2463378906
 21
1651.20703125
  0
LINE
  8
DOGSV_6
  6
DOGSL_1
 62
     1
 10
2538.5825195312
 20
1629.0444335938
 11
2538.0480957031
 21
1621.9270019531
  0
LINE
  8
DOGSV_6
  6
DOGSL_1
 62
     1
 10
2549.7976074219
 20
1608.7930908203
 11
2550.6762695312
 21
1620.4948730469
  0
LINE
  8
DOGSV_6
  6
DOGSL_1
 62
     1
 10
2550.6762695312
 20
1620.4948730469
 11
2546.7248535156
 21
1620.7916259766
  0
LINE
  8
DOGSV_6
  6
DOGSL_1
 62
     1
 10
2546.7248535156
 20
1620.7916259766
 11
2545.8464355469
 21
1609.0897216797
  0
LINE
  8
DOGSV_6
  6
DOGSL_1
 62
     1
 10
2549.7976074219
 20
1608.7930908203
 11
2545.8464355469
 21
1609.0897216797
  0
ARC
  8
DOGSV_6
  6
DOGSL_1
 62
     1
 10
2555.4020996094
 20
1614.7401123047
 40
0.5079863071
 50
85.7054367065
 51
175.7054443359
  0
LINE
  8
DOGSV_6
  6
DOGSL_1
 62
     1
 10
2554.8955078125
 20
1614.7781982422
 11
2554.8232421875
 21
1613.8156738281
  0
ARC
  8
DOGSV_6
  6
DOGSL_1
 62
     1
 10
2555.3298339844
 20
1613.7775878906
 40
0.5079863071
 50
175.7054443359
 51
265.7054443359
  0
ARC
  8
DOGSV_6
  6
DOGSL_1
 62
     1
 10
2536.4057617188
 20
1616.1663818359
 40
0.5079863071
 50
85.7054367065
 51
175.7054443359
  0
LINE
  8
DOGSV_6
  6
DOGSL_1
 62
     1
 10
2535.8989257812
 20
1616.2044677734
 11
2535.8269042969
 21
1615.2419433594
  0
ARC
  8
DOGSV_6
  6
DOGSL_1
 62
     1
 10
2536.3332519531
 20
1615.2039794922
 40
0.5079863071
 50
175.7054443359
 51
265.7054443359
  0
LINE
  8
DOGSV_6
  6
DOGSL_1
 62
     1
 10
2542.0161132812
 20
1616.2546386719
 11
2536.4436035156
 21
1616.6729736328
  0
ARC
  8
DOGSV_6
  6
DOGSL_1
 62
     1
 10
2541.9780273438
 20
1615.748046875
 40
0.5079863071
 50
355.7054443359
 51
85.7054443359
  0
LINE
  8
DOGSV_6
  6
DOGSL_1
 62
     1
 10
2536.2954101562
 20
1614.6973876953
 11
2541.8676757812
 21
1614.2789306641
  0
LINE
  8
DOGSV_6
  6
DOGSL_1
 62
     1
 10
2542.4123535156
 20
1614.7475585938
 11
2542.4846191406
 21
1615.7099609375
  0
ARC
  8
DOGSV_6
  6
DOGSL_1
 62
     1
 10
2541.9057617188
 20
1614.7855224609
 40
0.5079863071
 50
265.7054443359
 51
355.7054443359
  0
LINE
  8
DOGSV_6
  6
DOGSL_1
 62
     1
 10
2554.5983886719
 20
1620.6589355469
 11
2543.6564941406
 21
1621.48046875
  0
LINE
  8
DOGSV_6
  6
DOGSL_1
 62
     1
 10
2554.5983886719
 20
1620.6589355469
 11
2554.6591796875
 21
1621.4694824219
  0
LINE
  8
DOGSV_6
  6
DOGSL_1
 62
     1
 10
2543.6564941406
 20
1621.48046875
 11
2543.7172851562
 21
1622.291015625
  0
LINE
  8
DOGSV_6
  6
DOGSL_1
 62
     1
 10
2551.5629882812
 20
1621.7019042969
 11
2546.8137207031
 21
1622.0584716797
  0
LINE
  8
DOGSV_6
  6
DOGSL_1
 62
     1
 10
2560.2106933594
 20
1620.2630615234
 11
2560.7451171875
 21
1627.3803710938
  0
ARC
  8
DOGSV_6
  6
DOGSL_1
 62
     1
 10
2560.9743652344
 20
1614.3217773438
 40
0.5079863071
 50
355.7054443359
 51
85.7054443359
  0
LINE
  8
DOGSV_6
  6
DOGSL_1
 62
     1
 10
2561.4086914062
 20
1613.3212890625
 11
2561.4809570312
 21
1614.2838134766
  0
ARC
  8
DOGSV_6
  6
DOGSL_1
 62
     1
 10
2560.90234375
 20
1613.3592529297
 40
0.5079863071
 50
265.7054443359
 51
355.7054443359
  0
LINE
  8
DOGSV_6
  6
DOGSL_1
 62
     1
 10
2561.0124511719
 20
1614.8283691406
 11
2555.4401855469
 21
1615.2467041016
  0
LINE
  8
DOGSV_6
  6
DOGSL_1
 62
     1
 10
2555.2919921875
 20
1613.2711181641
 11
2560.8642578125
 21
1612.8526611328
  0
LINE
  8
DOGSV_6
  6
DOGSL_1
 62
     1
 10
2561.4448242188
 20
1613.8024902344
 11
2554.859375
 21
1614.2969970703
  0
LINE
  8
DOGSV_6
  6
DOGSL_1
 62
     1
 10
2537.0971679688
 20
1609.2626953125
 11
2559.259765625
 21
1607.5986328125
  0
LINE
  8
DOGSV_6
  6
DOGSL_1
 62
     1
 10
2536.9792480469
 20
1607.6922607422
 11
2559.1418457031
 21
1606.0283203125
  0
LINE
  8
DOGSV_6
  6
DOGSL_1
 62
     1
 10
2560.26953125
 20
1621.0482177734
 11
2538.1069335938
 21
1622.7121582031
  0
LINE
  8
DOGSV_6
  6
DOGSL_1
 62
     1
 10
2560.7451171875
 20
1627.3803710938
 11
2538.5825195312
 21
1629.0444335938
  0
LINE
  8
DOGSV_6
  6
DOGSL_1
 62
     1
 10
2538.5825195312
 20
1629.0444335938
 11
2560.7451171875
 21
1627.3803710938
  0
CIRCLE
  8
DOGSV_6
  6
DOGSL_1
 62
     1
 10
2550.4956054688
 20
1639.2937011719
 40
9.5249996185
  0
LINE
  8
DOGSV_6
  6
DOGSL_1
 62
     1
 10
2540.2463378906
 20
1651.20703125
 11
2538.5825195312
 21
1629.0444335938
  0
LINE
  8
DOGSV_6
  6
DOGSL_1
 62
     1
 10
2560.7451171875
 20
1627.3803710938
 11
2562.4089355469
 21
1649.5430908203
  0
LINE
  8
DOGSV_6
  6
DOGSL_1
 62
     1
 10
2582.4521484375
 20
1607.4619140625
 11
2583.1633300781
 21
1616.9351806641
  0
LINE
  8
DOGSV_6
  6
DOGSL_1
 62
     1
 10
2581.6267089844
 20
1649.8928222656
 11
2581.8759765625
 21
1649.8740234375
  0
LINE
  8
DOGSV_6
  6
DOGSL_1
 62
     1
 10
2576.2607421875
 20
1575.0845947266
 11
2581.8759765625
 21
1649.8740234375
  0
LINE
  8
DOGSV_6
  6
DOGSL_1
 62
     1
 10
2575.7075195312
 20
1611.1271972656
 11
2575.3520507812
 21
1606.3905029297
  0
LINE
  8
DOGSV_6
  6
DOGSL_1
 62
     1
 10
2574.9597167969
 20
1611.1833496094
 11
2574.5454101562
 21
1605.6638183594
  0
LINE
  8
DOGSV_6
  6
DOGSL_1
 62
     1
 10
2579.3532714844
 20
1619.6130371094
 11
2578.2849121094
 21
1605.3830566406
  0
LINE
  8
DOGSV_6
  6
DOGSL_1
 62
     1
 10
2583.1633300781
 20
1616.9351806641
 11
2580.171875
 21
1617.1599121094
  0
LINE
  8
DOGSV_6
  6
DOGSL_1
 62
     1
 10
2579.3532714844
 20
1619.6130371094
 11
2577.857421875
 21
1619.7253417969
  0
LINE
  8
DOGSV_6
  6
DOGSL_1
 62
     1
 10
2579.2495117188
 20
1618.2319335938
 11
2579.3532714844
 21
1619.6130371094
  0
ARC
  8
DOGSV_6
  6
DOGSL_1
 62
     1
 10
2580.2468261719
 20
1618.1569824219
 40
1.000007391
 50
175.7056884766
 51
265.7056884766
  0
ARC
  8
DOGSV_6
  6
DOGSL_1
 62
     1
 10
2576.5505371094
 20
1615.6768798828
 40
1.000007391
 50
265.7056884766
 51
355.7056884766
  0
LINE
  8
DOGSV_6
  6
DOGSL_1
 62
     1
 10
2576.3029785156
 20
1619.0548095703
 11
2575.5549316406
 21
1619.1109619141
  0
LINE
  8
DOGSV_6
  6
DOGSL_1
 62
     1
 10
2575.6137695312
 20
1619.8937988281
 11
2574.1179199219
 21
1620.0061035156
  0
ARC
  8
DOGSV_6
  6
DOGSL_1
 62
     1
 10
2576.1013183594
 20
1609.6937255859
 40
1.000007391
 50
355.7056884766
 51
85.7056884766
  0
LINE
  8
DOGSV_6
  6
DOGSL_1
 62
     1
 10
2577.0986328125
 20
1609.6187744141
 11
2576.7890625
 21
1605.4953613281
  0
LINE
  8
DOGSV_6
  6
DOGSL_1
 62
     1
 10
2576.4758300781
 20
1614.6796875
 11
2575.9772949219
 21
1614.7170410156
  0
LINE
  8
DOGSV_6
  6
DOGSL_1
 62
     1
 10
2576.1762695312
 20
1610.6907958984
 11
2575.677734375
 21
1610.7282714844
  0
ARC
  8
DOGSV_6
  6
DOGSL_1
 62
     1
 10
2579.3857421875
 20
1606.6893310547
 40
1.000007391
 50
85.7057037354
 51
175.7057037354
  0
LINE
  8
DOGSV_6
  6
DOGSL_1
 62
     1
 10
2575.3520507812
 20
1606.3905029297
 11
2574.6040039062
 21
1606.4466552734
  0
LINE
  8
DOGSV_6
  6
DOGSL_1
 62
     1
 10
2582.4521484375
 20
1607.4619140625
 11
2579.4606933594
 21
1607.6865234375
  0
LINE
  8
DOGSV_6
  6
DOGSL_1
 62
     1
 10
2544.3989257812
 20
1616.6868896484
 11
2582.9274902344
 21
1613.7940673828
  0
LINE
  8
DOGSV_6
  6
DOGSL_1
 62
     1
 10
2582.9274902344
 20
1613.7940673828
 11
2582.6879882812
 21
1610.6030273438
  0
LINE
  8
DOGSV_6
  6
DOGSL_1
 62
     1
 10
2582.6879882812
 20
1610.6030273438
 11
2544.1594238281
 21
1613.4958496094
  0
LINE
  8
DOGSV_6
  6
DOGSL_1
 62
     1
 10
2578.3884277344
 20
1606.7641601562
 11
2578.2849121094
 21
1605.3830566406
  0
LINE
  8
DOGSV_6
  6
DOGSL_1
 62
     1
 10
2577.857421875
 20
1619.7253417969
 11
2577.5478515625
 21
1615.6019287109
  0
LINE
  8
DOGSV_6
  6
DOGSL_1
 62
     1
 10
2576.3029785156
 20
1619.0548095703
 11
2575.947265625
 21
1614.3181152344
  0
LINE
  8
DOGSV_6
  6
DOGSL_1
 62
     1
 10
2575.6137695312
 20
1619.8937988281
 11
2575.19921875
 21
1614.3742675781
  0
LINE
  8
DOGSV_6
  6
DOGSL_1
 62
     1
 10
2549.4775390625
 20
1625.7319335938
 11
2534.51953125
 21
1626.8549804688
  0
LINE
  8
DOGSV_6
  6
DOGSL_1
 62
     1
 10
2574.4072265625
 20
1623.8602294922
 11
2572.7602539062
 21
1601.9219970703
  0
LINE
  8
DOGSV_6
  6
DOGSL_1
 62
     1
 10
2549.4775390625
 20
1625.7319335938
 11
2574.4072265625
 21
1623.8602294922
  0
CIRCLE
  8
DOGSV_6
  6
DOGSL_1
 62
     1
 10
2541.1750488281
 20
1615.3243408203
 40
3.5
  0
CIRCLE
  8
DOGSV_6
  6
DOGSL_1
 62
     1
 10
2541.1750488281
 20
1615.3243408203
 40
3.0
  0
CIRCLE
  8
DOGSV_6
  6
DOGSL_1
 62
     1
 10
2539.0849609375
 20
1615.1265869141
 40
0.1000000015
  0
CIRCLE
  8
DOGSV_6
  6
DOGSL_1
 62
     1
 10
2539.7170410156
 20
1616.8352050781
 40
0.1000000015
  0
CIRCLE
  8
DOGSV_6
  6
DOGSL_1
 62
     1
 10
2541.447265625
 20
1617.4061279297
 40
0.1000000015
  0
CIRCLE
  8
DOGSV_6
  6
DOGSL_1
 62
     1
 10
2542.9724121094
 20
1616.4094238281
 40
0.1000000015
  0
CIRCLE
  8
DOGSV_6
  6
DOGSL_1
 62
     1
 10
2543.1440429688
 20
1614.595703125
 40
0.1000000015
  0
CIRCLE
  8
DOGSV_6
  6
DOGSL_1
 62
     1
 10
2541.8330078125
 20
1613.3306884766
 40
0.1000000015
  0
CIRCLE
  8
DOGSV_6
  6
DOGSL_1
 62
     1
 10
2540.0263671875
 20
1613.5668945312
 40
0.1000000015
  0
ARC
  8
DOGSV_6
  6
DOGSL_1
 62
     1
 10
3069.8205566406
 20
1759.7628173828
 40
216.6667022705
 50
149.5257568359
 51
210.5102386475
  0
ARC
  8
DOGSV_6
  6
DOGSL_1
 62
     1
 10
2726.4873046875
 20
1759.7628173828
 40
216.6666870117
 50
329.4897766113
 51
30.4742431641
  0
LINE
  8
DOGSV_6
  6
DOGSL_1
 62
     1
 10
2898.6538085938
 20
1655.7628173828
 11
2898.6538085938
 21
1863.7628173828
  0
LINE
  8
DOGSV_6
  6
DOGSL_1
 62
     1
 10
2888.1538085938
 20
1639.7628173828
 11
2888.1538085938
 21
1649.7628173828
  0
LINE
  8
DOGSV_6
  6
DOGSL_1
 62
     1
 10
2888.1538085938
 20
1644.7628173828
 11
2891.1538085938
 21
1644.2659912109
  0
LINE
  8
DOGSV_6
  6
DOGSL_1
 62
     1
 10
2891.1538085938
 20
1644.2659912109
 11
2891.1538085938
 21
1648.1697998047
  0
LINE
  8
DOGSV_6
  6
DOGSL_1
 62
     1
 10
2891.1538085938
 20
1648.1697998047
 11
2888.1538085938
 21
1647.7628173828
  0
LINE
  8
DOGSV_6
  6
DOGSL_1
 62
     1
 10
2888.1538085938
 20
1644.7628173828
 11
2888.1538085938
 21
1647.7628173828
  0
CIRCLE
  8
DOGSV_6
  6
DOGSL_1
 62
     1
 10
2889.4575195312
 20
1646.2432861328
 40
1.6965600252
  0
LINE
  8
DOGSV_6
  6
DOGSL_1
 62
     1
 10
2888.1538085938
 20
1639.7628173828
 11
2883.1538085938
 21
1639.7628173828
  0
LINE
  8
DOGSV_6
  6
DOGSL_1
 62
     1
 10
2883.1538085938
 20
1639.7628173828
 11
2883.1538085938
 21
1649.7628173828
  0
LINE
  8
DOGSV_6
  6
DOGSL_1
 62
     1
 10
2883.1538085938
 20
1649.7628173828
 11
2888.1538085938
 21
1649.7628173828
  0
LINE
  8
DOGSV_6
  6
DOGSL_1
 62
     1
 10
2888.1538085938
 20
1639.7628173828
 11
2888.1538085938
 21
1649.7628173828
  0
LINE
  8
DOGSV_6
  6
DOGSL_1
 62
     1
 10
2908.1538085938
 20
1639.7628173828
 11
2913.1538085938
 21
1639.7628173828
  0
LINE
  8
DOGSV_6
  6
DOGSL_1
 62
     1
 10
2913.1538085938
 20
1639.7628173828
 11
2913.1538085938
 21
1649.7628173828
  0
LINE
  8
DOGSV_6
  6
DOGSL_1
 62
     1
 10
2913.1538085938
 20
1649.7628173828
 11
2908.1538085938
 21
1649.7628173828
  0
LINE
  8
DOGSV_6
  6
DOGSL_1
 62
     1
 10
2908.1538085938
 20
1639.7628173828
 11
2908.1538085938
 21
1649.7628173828
  0
CIRCLE
  8
DOGSV_6
  6
DOGSL_1
 62
     1
 10
2906.8503417969
 20
1646.2432861328
 40
1.6965600252
  0
LINE
  8
DOGSV_6
  6
DOGSL_1
 62
     1
 10
2908.1538085938
 20
1644.7628173828
 11
2905.1538085938
 21
1644.2659912109
  0
ARC
  8
DOGSV_6
  6
DOGSL_1
 62
     1
 10
3074.8205566406
 20
1759.7628173828
 40
216.6666870117
 50
149.4897613525
 51
210.5102386475
  0
ARC
  8
DOGSV_6
  6
DOGSL_1
 62
     1
 10
2721.4873046875
 20
1759.7628173828
 40
216.6666870117
 50
329.4897766113
 51
30.5102539062
  0
ARC
  8
DOGSV_6
  6
DOGSL_1
 62
     1
 10
3038.1538085938
 20
1703.0961914062
 40
216.6666870117
 50
59.4897651672
 51
120.5102386475
  0
ARC
  8
DOGSV_6
  6
DOGSL_1
 62
     1
 10
3038.1538085938
 20
1708.0961914062
 40
216.6666870117
 50
59.4897651672
 51
120.4742431641
  0
ARC
  8
DOGSV_6
  6
DOGSL_1
 62
     1
 10
2759.9411621094
 20
1706.8304443359
 40
216.6666870117
 50
60.0874824524
 51
121.0719604492
  0
ARC
  8
DOGSV_6
  6
DOGSL_1
 62
     1
 10
2759.990234375
 20
1701.8306884766
 40
216.6666717529
 50
60.051486969
 51
121.0719604492
  0
ARC
  8
DOGSV_6
  6
DOGSL_3
 62
     3
 10
2908.1538085938
 20
1889.7628173828
 40
250.0
 50
270.0
 51
1.1503601074
  0
LINE
  8
DOGSV_6
  6
DOGSL_1
 62
     1
 10
2905.1538085938
 20
1644.2659912109
 11
2905.1538085938
 21
1648.1697998047
  0
LINE
  8
DOGSV_6
  6
DOGSL_1
 62
     1
 10
2905.1538085938
 20
1648.1697998047
 11
2908.1538085938
 21
1647.7628173828
  0
LINE
  8
DOGSV_6
  6
DOGSL_1
 62
     1
 10
2908.1538085938
 20
1644.7628173828
 11
2908.1538085938
 21
1647.7628173828
  0
LINE
  8
DOGSV_6
  6
DOGSL_1
 62
     1
 10
2888.1538085938
 20
1639.7628173828
 11
2908.1538085938
 21
1639.7628173828
  0
LINE
  8
DOGSV_6
  6
DOGSL_1
 62
     1
 10
2896.6538085938
 20
1657.7628173828
 11
2898.1538085938
 21
1657.7628173828
  0
ARC
  8
DOGSV_6
  6
DOGSL_1
 62
     1
 10
2896.6538085938
 20
1657.2628173828
 40
0.5
 50
90.0
 51
180.0
  0
LINE
  8
DOGSV_6
  6
DOGSL_1
 62
     1
 10
2898.1538085938
 20
1657.7628173828
 11
2898.6538085938
 21
1657.7628173828
  0
LINE
  8
DOGSV_6
  6
DOGSL_1
 62
     1
 10
2908.1538085938
 20
1639.7628173828
 11
2908.1538085938
 21
1649.7628173828
  0
LINE
  8
DOGSV_6
  6
DOGSL_1
 62
     1
 10
2888.1538085938
 20
1649.7628173828
 11
2888.1538085938
 21
1639.7628173828
  0
LINE
  8
DOGSV_6
  6
DOGSL_1
 62
     1
 10
2901.1538085938
 20
1649.7628173828
 11
2901.1538085938
 21
1654.7628173828
  0
LINE
  8
DOGSV_6
  6
DOGSL_1
 62
     1
 10
2901.1538085938
 20
1654.7628173828
 11
2898.1538085938
 21
1654.7628173828
  0
LINE
  8
DOGSV_6
  6
DOGSL_1
 62
     1
 10
2898.1538085938
 20
1654.7628173828
 11
2898.1538085938
 21
1649.7628173828
  0
LINE
  8
DOGSV_6
  6
DOGSL_1
 62
     1
 10
2908.1538085938
 20
1649.7628173828
 11
2901.1538085938
 21
1649.7628173828
  0
LINE
  8
DOGSV_6
  6
DOGSL_1
 62
     1
 10
2898.1538085938
 20
1649.7628173828
 11
2888.1538085938
 21
1649.7628173828
  0
LINE
  8
DOGSV_6
  6
DOGSL_1
 62
     1
 10
2898.1538085938
 20
1654.7628173828
 11
2898.1538085938
 21
1649.7628173828
  0
LINE
  8
DOGSV_6
  6
DOGSL_1
 62
     1
 10
2895.1538085938
 20
1649.7628173828
 11
2895.1538085938
 21
1654.7628173828
  0
LINE
  8
DOGSV_6
  6
DOGSL_1
 62
     1
 10
2896.1538085938
 20
1655.2628173828
 11
2896.1538085938
 21
1657.2628173828
  0
LINE
  8
DOGSV_6
  6
DOGSL_1
 62
     1
 10
2895.1538085938
 20
1654.7628173828
 11
2895.6538085938
 21
1654.7628173828
  0
ARC
  8
DOGSV_6
  6
DOGSL_1
 62
     1
 10
2895.6538085938
 20
1655.2628173828
 40
0.5
 50
270.0
 51
360.0
  0
LINE
  8
DOGSV_6
  6
DOGSL_1
 62
     1
 10
2898.1538085938
 20
1639.7628173828
 11
2898.1538085938
 21
1655.2628173828
  0
ARC
  8
DOGSV_6
  6
DOGSL_1
 62
     1
 10
2898.6538085938
 20
1655.2628173828
 40
0.5
 50
90.0
 51
180.0
  0
LINE
  8
DOGSV_6
  6
DOGSL_1
 62
     1
 10
2898.6538085938
 20
1657.7628173828
 11
2898.6538085938
 21
1655.7628173828
  0
LINE
  8
DOGSV_6
  6
DOGSL_1
 62
     1
 10
2901.1538085938
 20
1653.0128173828
 11
2895.8059082031
 21
1653.0128173828
  0
LINE
  8
DOGSV_6
  6
DOGSL_1
 62
     1
 10
2901.1538085938
 20
1651.5128173828
 11
2895.8059082031
 21
1651.5128173828
  0
LINE
  8
DOGSV_6
  6
DOGSL_1
 62
     1
 10
2895.1538085938
 20
1653.7628173828
 11
2895.8059082031
 21
1653.0128173828
  0
LINE
  8
DOGSV_6
  6
DOGSL_1
 62
     1
 10
2895.1538085938
 20
1650.7628173828
 11
2895.8059082031
 21
1651.5128173828
  0
LINE
  8
DOGSV_6
  6
DOGSL_1
 62
     1
 10
2901.1538085938
 20
1652.8627929688
 11
2898.1538085938
 21
1652.8627929688
  0
LINE
  8
DOGSV_6
  6
DOGSL_1
 62
     1
 10
2901.1538085938
 20
1651.6628417969
 11
2898.1538085938
 21
1651.6628417969
  0
LINE
  8
DOGSV_6
  6
DOGSL_1
 62
     1
 10
2858.2836914062
 20
1806.630859375
 11
2877.23828125
 21
1892.1812744141
  0
LINE
  8
DOGSV_6
  6
DOGSL_1
 62
     1
 10
2938.0241699219
 20
1806.630859375
 11
2919.0695800781
 21
1892.1812744141
  0
LINE
  8
DOGSV_6
  6
DOGSL_1
 62
     1
 10
2898.6538085938
 20
1861.7628173828
 11
2898.6538085938
 21
1863.7628173828
  0
LINE
  8
DOGSV_6
  6
DOGSL_1
 62
     1
 10
2896.1538085938
 20
1864.2628173828
 11
2896.1538085938
 21
1862.2628173828
  0
LINE
  8
DOGSV_6
  6
DOGSL_1
 62
     1
 10
2898.1538085938
 20
1861.7628173828
 11
2898.6538085938
 21
1861.7628173828
  0
ARC
  8
DOGSV_6
  6
DOGSL_1
 62
     1
 10
2896.6538085938
 20
1862.2628173828
 40
0.5
 50
180.0
 51
270.0
  0
LINE
  8
DOGSV_6
  6
DOGSL_1
 62
     1
 10
2896.6538085938
 20
1861.7628173828
 11
2898.1538085938
 21
1861.7628173828
  0
LINE
  8
DOGSV_6
  6
DOGSL_1
 62
     1
 10
2928.1538085938
 20
1889.7628173828
 11
2918.1538085938
 21
1889.7628173828
  0
LINE
  8
DOGSV_6
  6
DOGSL_1
 62
     1
 10
2928.1538085938
 20
1889.7628173828
 11
2918.1538085938
 21
1889.7628173828
  0
LINE
  8
DOGSV_6
  6
DOGSL_1
 62
     1
 10
2918.1538085938
 20
1894.7628173828
 11
2928.017578125
 21
1894.7628173828
  0
LINE
  8
DOGSV_6
  6
DOGSL_1
 62
     1
 10
2991.2858886719
 20
1919.6330566406
 11
2905.7353515625
 21
1900.6784667969
  0
LINE
  8
DOGSV_6
  6
DOGSL_1
 62
     1
 10
2804.7331542969
 20
1918.8165283203
 11
2890.4653320312
 21
1900.7016601562
  0
ARC
  8
DOGSV_6
  6
DOGSL_1
 62
     1
 10
2898.8171386719
 20
1890.3674316406
 40
0.5000241995
 50
270.5637512207
 51
3.2470397949
  0
ARC
  8
DOGSV_6
  6
DOGSL_1
 62
     1
 10
2888.1538085938
 20
1889.7628173828
 40
11.1803274155
 50
3.2450518608
 51
153.9967193604
  0
LINE
  8
DOGSV_6
  6
DOGSL_1
 62
     1
 10
2888.1538085938
 20
1889.7628173828
 11
2898.8220214844
 21
1889.8674316406
  0
ARC
  8
DOGSV_6
  6
DOGSL_1
 62
     1
 10
2888.1538085938
 20
1889.7628173828
 40
6.0000090599
 50
0.561888814
 51
180.5618896484
  0
ARC
  8
DOGSV_6
  6
DOGSL_1
 62
     1
 10
2888.1538085938
 20
1889.7629394531
 40
6.0000090599
 50
180.5618743896
 51
0.5618896484
  0
CIRCLE
  8
DOGSV_6
  6
DOGSL_1
 62
     1
 10
2888.1538085938
 20
1889.7628173828
 40
2.0
  0
LINE
  8
DOGSV_6
  6
DOGSL_1
 62
     1
 10
2878.154296875
 20
1889.6647949219
 11
2888.1538085938
 21
1889.7628173828
  0
ARC
  8
DOGSV_6
  6
DOGSL_1
 62
     1
 10
2868.2373046875
 20
1895.0678710938
 40
0.500015974
 50
240.0857086182
 51
270.5599365234
  0
LINE
  8
DOGSV_6
  6
DOGSL_1
 62
     1
 10
2878.10546875
 20
1894.6645507812
 11
2868.2421875
 21
1894.5678710938
  0
LINE
  8
DOGSV_6
  6
DOGSL_1
 62
     1
 10
2868.1547851562
 20
1889.5667724609
 11
2878.154296875
 21
1889.6647949219
  0
LINE
  8
DOGSV_6
  6
DOGSL_1
 62
     1
 10
2878.154296875
 20
1889.6647949219
 11
2878.10546875
 21
1894.6645507812
  0
LINE
  8
DOGSV_6
  6
DOGSL_1
 62
     1
 10
2868.1547851562
 20
1889.5667724609
 11
2878.154296875
 21
1889.6647949219
  0
LINE
  8
DOGSV_6
  6
DOGSL_1
 62
     1
 10
2918.1538085938
 20
1889.7628173828
 11
2918.1538085938
 21
1894.7628173828
  0
LINE
  8
DOGSV_6
  6
DOGSL_1
 62
     1
 10
2918.1538085938
 20
1889.7628173828
 11
2908.1538085938
 21
1889.7628173828
  0
CIRCLE
  8
DOGSV_6
  6
DOGSL_1
 62
     1
 10
2908.1538085938
 20
1889.7628173828
 40
2.0
  0
ARC
  8
DOGSV_6
  6
DOGSL_1
 62
     1
 10
2908.1538085938
 20
1889.7628173828
 40
6.0
 50
180.0
 51
360.0
  0
ARC
  8
DOGSV_6
  6
DOGSL_1
 62
     1
 10
2908.1538085938
 20
1889.7628173828
 40
6.0
 50
0.0
 51
180.0
  0
LINE
  8
DOGSV_6
  6
DOGSL_1
 62
     1
 10
2908.1538085938
 20
1889.7628173828
 11
2897.4853515625
 21
1889.7628173828
  0
ARC
  8
DOGSV_6
  6
DOGSL_1
 62
     1
 10
2908.1538085938
 20
1889.7628173828
 40
11.1803398132
 50
26.5650501251
 51
177.3167114258
  0
ARC
  8
DOGSV_6
  6
DOGSL_1
 62
     1
 10
2897.4853515625
 20
1890.2629394531
 40
0.4999878705
 50
177.3175048828
 51
270.000793457
  0
LINE
  8
DOGSV_6
  6
DOGSL_1
 62
     1
 10
2898.1538085938
 20
1864.2628173828
 11
2898.1538085938
 21
1864.7628173828
  0
LINE
  8
DOGSV_6
  6
DOGSL_3
 62
     7
 10
2913.1538085938
 20
1889.7628173828
 11
2883.1538085938
 21
1889.7628173828
  0
LINE
  8
DOGSV_6
  6
DOGSL_1
 62
     1
 10
2883.1538085938
 20
1879.7628173828
 11
2913.1538085938
 21
1879.7628173828
  0
LINE
  8
DOGSV_6
  6
DOGSL_1
 62
     1
 10
2913.1538085938
 20
1879.7628173828
 11
2913.1538085938
 21
1894.7628173828
  0
LINE
  8
DOGSV_6
  6
DOGSL_1
 62
     1
 10
2913.1538085938
 20
1894.7628173828
 11
2883.1538085938
 21
1894.7628173828
  0
LINE
  8
DOGSV_6
  6
DOGSL_1
 62
     1
 10
2883.1538085938
 20
1879.7628173828
 11
2883.1538085938
 21
1894.7628173828
  0
ARC
  8
DOGSV_6
  6
DOGSL_1
 62
     1
 10
2888.1538085938
 20
1889.7628173828
 40
11.1803388596
 50
92.6832427979
 51
243.4349060059
  0
ARC
  8
DOGSV_6
  6
DOGSL_1
 62
     1
 10
2888.1538085938
 20
1889.7628173828
 40
6.0
 50
270.0
 51
90.0
  0
LINE
  8
DOGSV_6
  6
DOGSL_1
 62
     1
 10
2888.1538085938
 20
1879.7628173828
 11
2888.1538085938
 21
1889.7628173828
  0
CIRCLE
  8
DOGSV_6
  6
DOGSL_1
 62
     1
 10
2888.1538085938
 20
1889.7628173828
 40
2.0
  0
ARC
  8
DOGSV_6
  6
DOGSL_1
 62
     1
 10
2888.1538085938
 20
1889.7628173828
 40
6.0
 50
90.0
 51
270.0
  0
LINE
  8
DOGSV_6
  6
DOGSL_1
 62
     1
 10
2888.1538085938
 20
1889.7628173828
 11
2888.1538085938
 21
1900.4315185547
  0
ARC
  8
DOGSV_6
  6
DOGSL_1
 62
     1
 10
2887.6538085938
 20
1900.4315185547
 40
0.5
 50
0.0
 51
92.6832809448
  0
ARC
  8
DOGSV_6
  6
DOGSL_1
 62
     1
 10
2908.6538085938
 20
1900.4315185547
 40
0.4999878705
 50
87.3175125122
 51
180.000793457
  0
ARC
  8
DOGSV_6
  6
DOGSL_1
 62
     1
 10
2908.1538085938
 20
1889.7628173828
 40
11.1803398132
 50
296.565032959
 51
87.3167114258
  0
LINE
  8
DOGSV_6
  6
DOGSL_1
 62
     1
 10
2908.1538085938
 20
1889.7628173828
 11
2908.1538085938
 21
1900.4315185547
  0
ARC
  8
DOGSV_6
  6
DOGSL_1
 62
     1
 10
2908.1538085938
 20
1889.7628173828
 40
6.0
 50
270.0
 51
90.0
  0
ARC
  8
DOGSV_6
  6
DOGSL_1
 62
     1
 10
2908.1538085938
 20
1889.7628173828
 40
6.0
 50
90.0
 51
270.0
  0
CIRCLE
  8
DOGSV_6
  6
DOGSL_1
 62
     1
 10
2908.1538085938
 20
1889.7628173828
 40
2.0
  0
LINE
  8
DOGSV_6
  6
DOGSL_1
 62
     1
 10
2908.1538085938
 20
1879.7628173828
 11
2908.1538085938
 21
1889.7628173828
  0
ARC
  8
DOGSV_6
  6
DOGSL_1
 62
     1
 10
2882.6538085938
 20
1869.8991699219
 40
0.5000050068
 50
329.5228271484
 51
359.9970703125
  0
LINE
  8
DOGSV_6
  6
DOGSL_1
 62
     1
 10
2883.1538085938
 20
1879.7628173828
 11
2883.1538085938
 21
1869.8991699219
  0
ARC
  8
DOGSV_6
  6
DOGSL_1
 62
     1
 10
2913.6538085938
 20
1869.8991699219
 40
0.5
 50
180.0
 51
210.4742431641
  0
LINE
  8
DOGSV_6
  6
DOGSL_1
 62
     1
 10
2913.1538085938
 20
1879.7628173828
 11
2913.1538085938
 21
1869.8991699219
  0
LINE
  8
DOGSV_6
  6
DOGSL_1
 62
     1
 10
2888.1538085938
 20
1869.7628173828
 11
2888.1538085938
 21
1879.7628173828
  0
LINE
  8
DOGSV_6
  6
DOGSL_1
 62
     1
 10
2888.1538085938
 20
1879.7628173828
 11
2883.1538085938
 21
1879.7628173828
  0
LINE
  8
DOGSV_6
  6
DOGSL_1
 62
     1
 10
2908.1538085938
 20
1869.7628173828
 11
2908.1538085938
 21
1879.7628173828
  0
LINE
  8
DOGSV_6
  6
DOGSL_1
 62
     1
 10
2908.1538085938
 20
1879.7628173828
 11
2913.1538085938
 21
1879.7628173828
  0
LINE
  8
DOGSV_6
  6
DOGSL_1
 62
     1
 10
2901.1538085938
 20
1867.8627929688
 11
2898.1538085938
 21
1867.8627929688
  0
LINE
  8
DOGSV_6
  6
DOGSL_1
 62
     1
 10
2901.1538085938
 20
1866.6628417969
 11
2898.1538085938
 21
1866.6628417969
  0
LINE
  8
DOGSV_6
  6
DOGSL_1
 62
     1
 10
2895.1538085938
 20
1868.7628173828
 11
2895.8059082031
 21
1868.0128173828
  0
LINE
  8
DOGSV_6
  6
DOGSL_1
 62
     1
 10
2895.1538085938
 20
1865.7628173828
 11
2895.8059082031
 21
1866.5128173828
  0
LINE
  8
DOGSV_6
  6
DOGSL_1
 62
     1
 10
2901.1538085938
 20
1868.0128173828
 11
2895.8059082031
 21
1868.0128173828
  0
LINE
  8
DOGSV_6
  6
DOGSL_1
 62
     1
 10
2901.1538085938
 20
1866.5128173828
 11
2895.8059082031
 21
1866.5128173828
  0
ARC
  8
DOGSV_6
  6
DOGSL_1
 62
     1
 10
2898.6538085938
 20
1864.2628173828
 40
0.5
 50
180.0
 51
270.0
  0
ARC
  8
DOGSV_6
  6
DOGSL_1
 62
     1
 10
2895.6538085938
 20
1864.2628173828
 40
0.5
 50
0.0
 51
90.0
  0
LINE
  8
DOGSV_6
  6
DOGSL_1
 62
     1
 10
2895.1538085938
 20
1864.7628173828
 11
2895.6538085938
 21
1864.7628173828
  0
LINE
  8
DOGSV_6
  6
DOGSL_1
 62
     1
 10
2895.1538085938
 20
1869.7628173828
 11
2895.1538085938
 21
1864.7628173828
  0
LINE
  8
DOGSV_6
  6
DOGSL_1
 62
     1
 10
2898.1538085938
 20
1864.7628173828
 11
2898.1538085938
 21
1869.7628173828
  0
LINE
  8
DOGSV_6
  6
DOGSL_1
 62
     1
 10
2898.1538085938
 20
1864.7628173828
 11
2898.1538085938
 21
1869.7628173828
  0
LINE
  8
DOGSV_6
  6
DOGSL_1
 62
     1
 10
2901.1538085938
 20
1864.7628173828
 11
2898.1538085938
 21
1864.7628173828
  0
LINE
  8
DOGSV_6
  6
DOGSL_1
 62
     1
 10
2901.1538085938
 20
1869.7628173828
 11
2901.1538085938
 21
1864.7628173828
  0
LINE
  8
DOGSV_6
  6
DOGSL_1
 62
     1
 10
2908.1538085938
 20
1874.7628173828
 11
2905.1538085938
 21
1875.259765625
  0
LINE
  8
DOGSV_6
  6
DOGSL_1
 62
     1
 10
2905.1538085938
 20
1875.259765625
 11
2905.1538085938
 21
1871.3559570312
  0
LINE
  8
DOGSV_6
  6
DOGSL_1
 62
     1
 10
2905.1538085938
 20
1871.3559570312
 11
2908.1538085938
 21
1871.7628173828
  0
LINE
  8
DOGSV_6
  6
DOGSL_1
 62
     1
 10
2908.1538085938
 20
1874.7628173828
 11
2908.1538085938
 21
1871.7628173828
  0
CIRCLE
  8
DOGSV_6
  6
DOGSL_1
 62
     1
 10
2906.8503417969
 20
1873.2823486328
 40
1.6965600252
  0
CIRCLE
  8
DOGSV_6
  6
DOGSL_1
 62
     1
 10
2889.4575195312
 20
1873.2823486328
 40
1.6965600252
  0
LINE
  8
DOGSV_6
  6
DOGSL_1
 62
     1
 10
2888.1538085938
 20
1874.7628173828
 11
2891.1538085938
 21
1875.259765625
  0
LINE
  8
DOGSV_6
  6
DOGSL_1
 62
     1
 10
2891.1538085938
 20
1875.259765625
 11
2891.1538085938
 21
1871.3559570312
  0
LINE
  8
DOGSV_6
  6
DOGSL_1
 62
     1
 10
2891.1538085938
 20
1871.3559570312
 11
2888.1538085938
 21
1871.7628173828
  0
LINE
  8
DOGSV_6
  6
DOGSL_1
 62
     1
 10
2888.1538085938
 20
1874.7628173828
 11
2888.1538085938
 21
1871.7628173828
  0
LINE
  8
DOGSV_6
  6
DOGSL_1
 62
     1
 10
2908.1538085938
 20
1879.7628173828
 11
2888.1538085938
 21
1879.7628173828
  0
LINE
  8
DOGSV_6
  6
DOGSL_1
 62
     1
 10
2908.1538085938
 20
1869.7628173828
 11
2908.1538085938
 21
1879.7628173828
  0
LINE
  8
DOGSV_6
  6
DOGSL_1
 62
     1
 10
2888.1538085938
 20
1879.7628173828
 11
2888.1538085938
 21
1869.7628173828
  0
LINE
  8
DOGSV_6
  6
DOGSL_1
 62
     1
 10
2888.1538085938
 20
1869.7628173828
 11
2908.1538085938
 21
1869.7628173828
  0
ARC
  8
DOGSV_6
  6
DOGSL_1
 62
     1
 10
2928.017578125
 20
1895.2628173828
 40
0.5
 50
270.0
 51
300.4742431641
  0
LINE
  8
DOGSV_6
  6
DOGSL_1
 62
     1
 10
3158.1538085938
 20
1889.7628173828
 11
3158.1538085938
 21
1894.7628173828
  0
LINE
  8
DOGSV_6
  6
DOGSL_1
 62
     1
 10
3158.1538085938
 20
1894.7628173828
 11
3148.1538085938
 21
1894.7628173828
  0
LINE
  8
DOGSV_6
  6
DOGSL_1
 62
     1
 10
3148.1538085938
 20
1894.7628173828
 11
3148.1538085938
 21
1889.7628173828
  0
LINE
  8
DOGSV_6
  6
DOGSL_1
 62
     1
 10
3158.1538085938
 20
1889.7628173828
 11
3148.1538085938
 21
1889.7628173828
  0
LINE
  8
DOGSV_6
  6
DOGSL_3
 62
     3
 10
2547.4172363281
 20
1598.2906494141
 11
2551.6203613281
 21
1654.2733154297
  0
LINE
  8
DOGSV_6
  6
DOGSL_3
 62
     3
 10
2585.6127929688
 20
1611.9880371094
 11
2530.5825195312
 21
1616.1196289062
  0
LINE
  8
DOGSV_6
  6
DOGSL_3
 62
     3
 10
2903.4494628906
 20
1867.2628173828
 11
2892.8020019531
 21
1867.2628173828
  0
LINE
  8
DOGSV_6
  6
DOGSL_1
 62
     1
 10
2858.1538085938
 20
1759.7628173828
 11
2938.1538085938
 21
1759.7628173828
  0
LINE
  8
DOGSV_6
  6
DOGSL_3
 62
     3
 10
2903.8774414062
 20
1652.2628173828
 11
2893.5632324219
 21
1652.2628173828
  0
LINE
  8
DOGSV_6
  6
DOGSL_3
 62
     3
 10
2898.6538085938
 20
1865.0463867188
 11
2898.6538085938
 21
1911.8336181641
  0
LINE
  8
DOGSV_6
  6
DOGSL_1
 62
     1
 10
2638.1164550781
 20
1887.4096679688
 11
2638.1164550781
 21
1892.4096679688
  0
LINE
  8
DOGSV_6
  6
DOGSL_1
 62
     1
 10
2638.1164550781
 20
1892.4096679688
 11
2648.1164550781
 21
1892.4096679688
  0
LINE
  8
DOGSV_6
  6
DOGSL_1
 62
     1
 10
2648.1164550781
 20
1892.4096679688
 11
2648.1164550781
 21
1887.4096679688
  0
LINE
  8
DOGSV_6
  6
DOGSL_1
 62
     1
 10
2638.1164550781
 20
1887.4096679688
 11
2648.1164550781
 21
1887.4096679688
  0
ARC
  8
DOGSV_6
  6
DOGSL_3
 62
     3
 10
3611.3474121094
 20
1889.7628173828
 40
250.0
 50
270.0
 51
180.9343261719
  0
LINE
  8
DOGSV_6
  6
DOGSL_1
 62
     1
 10
3611.3474121094
 20
1639.7628173828
 11
3616.3474121094
 21
1639.7628173828
  0
LINE
  8
DOGSV_6
  6
DOGSL_1
 62
     1
 10
3616.3474121094
 20
1639.7628173828
 11
3616.3474121094
 21
1649.7628173828
  0
LINE
  8
DOGSV_6
  6
DOGSL_1
 62
     1
 10
3616.3474121094
 20
1649.7628173828
 11
3611.3474121094
 21
1649.7628173828
  0
LINE
  8
DOGSV_6
  6
DOGSL_1
 62
     1
 10
3611.3474121094
 20
1639.7628173828
 11
3611.3474121094
 21
1649.7628173828
  0
ARC
  8
DOGSV_6
  6
DOGSL_1
 62
     1
 10
3429.6806640625
 20
1759.7628173828
 40
216.6666870117
 50
329.4897766113
 51
30.4742431641
  0
ARC
  8
DOGSV_6
  6
DOGSL_1
 62
     1
 10
3424.6806640625
 20
1759.7628173828
 40
216.6666870117
 50
329.4897766113
 51
30.5102539062
  0
ARC
  8
DOGSV_6
  6
DOGSL_1
 62
     1
 10
3741.3474121094
 20
1703.0961914062
 40
216.6666870117
 50
59.4897651672
 51
120.5102386475
  0
ARC
  8
DOGSV_6
  6
DOGSL_1
 62
     1
 10
3741.3474121094
 20
1708.0961914062
 40
216.6666870117
 50
59.4897651672
 51
120.4742431641
  0
LINE
  8
DOGSV_6
  6
DOGSL_1
 62
     1
 10
3641.2175292969
 20
1806.630859375
 11
3622.2629394531
 21
1892.1812744141
  0
LINE
  8
DOGSV_6
  6
DOGSL_1
 62
     1
 10
3694.4792480469
 20
1919.6330566406
 11
3608.9289550781
 21
1900.6784667969
  0
LINE
  8
DOGSV_6
  6
DOGSL_1
 62
     1
 10
3616.3474121094
 20
1879.7628173828
 11
3616.3474121094
 21
1869.8991699219
  0
ARC
  8
DOGSV_6
  6
DOGSL_1
 62
     1
 10
3611.3474121094
 20
1889.7628173828
 40
11.1803398132
 50
296.565032959
 51
87.3167114258
  0
LINE
  8
DOGSV_6
  6
DOGSL_1
 62
     1
 10
3631.3474121094
 20
1889.7628173828
 11
3621.3474121094
 21
1889.7628173828
  0
LINE
  8
DOGSV_6
  6
DOGSL_1
 62
     1
 10
3631.3474121094
 20
1889.7628173828
 11
3621.3474121094
 21
1889.7628173828
  0
LINE
  8
DOGSV_6
  6
DOGSL_1
 62
     1
 10
3621.3474121094
 20
1894.7628173828
 11
3631.2109375
 21
1894.7628173828
  0
LINE
  8
DOGSV_6
  6
DOGSL_1
 62
     1
 10
3621.3474121094
 20
1889.7628173828
 11
3621.3474121094
 21
1894.7628173828
  0
LINE
  8
DOGSV_6
  6
DOGSL_1
 62
     1
 10
3621.3474121094
 20
1889.7628173828
 11
3611.3474121094
 21
1889.7628173828
  0
ARC
  8
DOGSV_6
  6
DOGSL_1
 62
     1
 10
3611.3474121094
 20
1889.7628173828
 40
11.1803398132
 50
26.5650501251
 51
177.3167114258
  0
ARC
  8
DOGSV_6
  6
DOGSL_1
 62
     1
 10
3631.2109375
 20
1895.2628173828
 40
0.5
 50
270.0
 51
300.4742431641
  0
ARC
  8
DOGSV_6
  6
DOGSL_1
 62
     1
 10
3611.3474121094
 20
1889.7628173828
 40
6.0
 50
180.0
 51
360.0
  0
LINE
  8
DOGSV_6
  6
DOGSL_1
 62
     1
 10
3586.3474121094
 20
1879.7628173828
 11
3616.3474121094
 21
1879.7628173828
  0
LINE
  8
DOGSV_6
  6
DOGSL_1
 62
     1
 10
3616.3474121094
 20
1879.7628173828
 11
3616.3474121094
 21
1894.7628173828
  0
LINE
  8
DOGSV_6
  6
DOGSL_1
 62
     1
 10
3616.3474121094
 20
1894.7628173828
 11
3586.3474121094
 21
1894.7628173828
  0
LINE
  8
DOGSV_6
  6
DOGSL_1
 62
     1
 10
3586.3474121094
 20
1879.7628173828
 11
3586.3474121094
 21
1894.7628173828
  0
CIRCLE
  8
DOGSV_6
  6
DOGSL_1
 62
     1
 10
3611.3474121094
 20
1889.7628173828
 40
2.0
  0
LINE
  8
DOGSV_6
  6
DOGSL_1
 62
     1
 10
3611.3474121094
 20
1889.7628173828
 11
3611.3474121094
 21
1900.4315185547
  0
ARC
  8
DOGSV_6
  6
DOGSL_1
 62
     1
 10
3611.3474121094
 20
1889.7628173828
 40
6.0
 50
0.0
 51
180.0
  0
LINE
  8
DOGSV_6
  6
DOGSL_1
 62
     1
 10
3611.3474121094
 20
1889.7628173828
 11
3600.6787109375
 21
1889.7628173828
  0
LINE
  8
DOGSV_6
  6
DOGSL_1
 62
     1
 10
3611.3474121094
 20
1869.7628173828
 11
3611.3474121094
 21
1879.7628173828
  0
LINE
  8
DOGSV_6
  6
DOGSL_1
 62
     1
 10
3861.3474121094
 20
1889.7628173828
 11
3861.3474121094
 21
1894.7628173828
  0
LINE
  8
DOGSV_6
  6
DOGSL_1
 62
     1
 10
3861.3474121094
 20
1894.7628173828
 11
3851.3474121094
 21
1894.7628173828
  0
LINE
  8
DOGSV_6
  6
DOGSL_1
 62
     1
 10
3851.3474121094
 20
1894.7628173828
 11
3851.3474121094
 21
1889.7628173828
  0
LINE
  8
DOGSV_6
  6
DOGSL_1
 62
     1
 10
3861.3474121094
 20
1889.7628173828
 11
3851.3474121094
 21
1889.7628173828
  0
LINE
  8
DOGSV_6
  6
DOGSL_1
 62
     1
 10
3586.3474121094
 20
1879.7628173828
 11
3602.3549804688
 21
1879.7628173828
  0
LINE
  8
DOGSV_6
  6
DOGSL_1
 62
     1
 10
3616.3474121094
 20
1904.7628173828
 11
3606.3474121094
 21
1904.7628173828
  0
LINE
  8
DOGSV_6
  6
DOGSL_1
 62
     1
 10
3606.3474121094
 20
1639.7629394531
 11
3606.3474121094
 21
1904.7628173828
  0
LINE
  8
DOGSV_6
  6
DOGSL_1
 62
     1
 10
3616.3474121094
 20
1639.7629394531
 11
3616.3474121094
 21
1904.7628173828
  0
LINE
  8
DOGSV_6
  6
DOGSL_1
 62
     1
 10
3616.3474121094
 20
1639.7629394531
 11
3602.525390625
 21
1639.7629394531
  0
TEXT
  8
DOGSV_8
 62
     3
 10
3658.2646484375
 20
493.2030334473
 40
40.0
 50
0.0
  1
VIEW 8 (RAYS)
  0
LINE
  8
DOGSV_8
  6
DOGSL_3
 62
     4
 10
3545.8474121094
 20
1539.8939208984
 11
2115.6213378906
 21
1385.2209472656
  0
LINE
  8
DOGSV_8
  6
DOGSL_1
 62
     4
 10
2115.6213378906
 20
1385.2209472656
 11
3544.5739746094
 21
1578.7042236328
  0
LINE
  8
DOGSV_8
  6
DOGSL_1
 62
     4
 10
2118.4304199219
 20
1385.6013183594
 11
3545.8454589844
 21
1500.9603271484
  0
LINE
  8
DOGSV_8
  6
DOGSL_1
 62
     4
 10
2107.46484375
 20
1502.4880371094
 11
2107.177734375
 21
1516.2962646484
  0
LINE
  8
DOGSV_8
  6
DOGSL_1
 62
     4
 10
2107.177734375
 20
1516.2962646484
 11
2106.9211425781
 21
1530.1082763672
  0
LINE
  8
DOGSV_8
  6
DOGSL_1
 62
     4
 10
3545.7297363281
 20
1494.8940429688
 11
2107.46484375
 21
1502.4880371094
  0
LINE
  8
DOGSV_8
  6
DOGSL_1
 62
     4
 10
2106.9211425781
 20
1530.1082763672
 11
3541.7429199219
 21
1584.7064208984
  0
LINE
  8
DOGSV_8
  6
DOGSL_1
 62
     4
 10
3542.4699707031
 20
1494.9112548828
 11
2105.5251464844
 21
1557.7689208984
  0
LINE
  8
DOGSV_8
  6
DOGSL_1
 62
     4
 10
3544.2546386719
 20
1584.8657226562
 11
2105.4375
 21
1585.8648681641
  0
LINE
  8
DOGSV_8
  6
DOGSL_1
 62
     4
 10
2105.4375
 20
1585.8648681641
 11
2105.5251464844
 21
1557.7689208984
  0
LINE
  8
DOGSV_8
  6
DOGSL_1
 62
     4
 10
2596.7114257812
 20
1609.2784423828
 11
3545.8454589844
 21
1500.9603271484
  0
LINE
  8
DOGSV_8
  6
DOGSL_3
 62
     4
 10
3545.8474121094
 20
1059.7685546875
 11
2285.1137695312
 21
1059.76171875
  0
LINE
  8
DOGSV_8
  6
DOGSL_1
 62
     4
 10
2596.9868164062
 20
1057.8924560547
 11
3545.8474121094
 21
1021.1655273438
  0
LINE
  8
DOGSV_8
  6
DOGSL_1
 62
     4
 10
617.3713378906
 20
1134.5161132812
 11
2595.9812011719
 21
1057.9312744141
  0
LINE
  8
DOGSV_8
  6
DOGSL_1
 62
     4
 10
2548.6535644531
 20
1059.7631835938
 11
617.3713378906
 21
1144.4877929688
  0
LINE
  8
DOGSV_8
  6
DOGSL_1
 62
     4
 10
617.3713378906
 20
974.8829956055
 11
2548.6535644531
 21
1059.7631835938
  0
LINE
  8
DOGSV_8
  6
DOGSL_1
 62
     4
 10
617.3713378906
 20
984.880859375
 11
3545.8474121094
 21
1098.427734375
  0
LINE
  8
DOGSV_8
  6
DOGSL_3
 62
     4
 10
3545.8474121094
 20
1539.8939208984
 11
609.5237426758
 21
1491.7513427734
  0
LINE
  8
DOGSV_8
  6
DOGSL_1
 62
     4
 10
3545.7297363281
 20
1494.8940429688
 11
3544.2556152344
 21
1584.8020019531
  0
LINE
  8
DOGSV_8
  6
DOGSL_1
 62
     4
 10
3613.2414550781
 20
1157.0595703125
 11
617.3713378906
 21
1157.0595703125
  0
LINE
  8
DOGSV_8
  6
DOGSL_1
 62
     4
 10
3613.2414550781
 20
1134.7836914062
 11
617.3713378906
 21
1134.7845458984
  0
LINE
  8
DOGSV_8
  6
DOGSL_1
 62
     4
 10
3613.2414550781
 20
1147.0596923828
 11
617.3713378906
 21
1147.060546875
  0
LINE
  8
DOGSV_8
  6
DOGSL_1
 62
     4
 10
3613.2414550781
 20
984.7534790039
 11
617.3713378906
 21
984.7525634766
  0
LINE
  8
DOGSV_8
  6
DOGSL_1
 62
     4
 10
3613.2414550781
 20
972.4774780273
 11
617.3713378906
 21
972.4765625
  0
LINE
  8
DOGSV_8
  6
DOGSL_1
 62
     4
 10
3613.2414550781
 20
962.4775390625
 11
617.3713378906
 21
962.4775390625
  0
LINE
  8
DOGSV_8
  6
DOGSL_3
 62
     4
 10
3545.8474121094
 20
1539.8939208984
 11
617.3713378906
 21
1759.7628173828
  0
LINE
  8
DOGSV_8
  6
DOGSL_1
 62
     4
 10
620.9103393555
 20
1834.7628173828
 11
2595.7114257812
 21
1609.392578125
  0
LINE
  8
DOGSV_8
  6
DOGSL_1
 62
     4
 10
615.2872924805
 20
1684.7628173828
 11
3544.5739746094
 21
1578.7042236328
  0
LINE
  8
DOGSV_8
  6
DOGSL_1
 62
     4
 10
3601.8474121094
 20
1684.7628173828
 11
615.2872924805
 21
1684.7628173828
  0
LINE
  8
DOGSV_8
  6
DOGSL_1
 62
     4
 10
3601.8474121094
 20
1661.7314453125
 11
615.2872924805
 21
1674.7628173828
  0
LINE
  8
DOGSV_8
  6
DOGSL_1
 62
     4
 10
615.1192626953
 20
1674.7653808594
 11
2548.6538085938
 21
1614.7628173828
  0
LINE
  8
DOGSV_8
  6
DOGSL_1
 62
     4
 10
3602.0153808594
 20
1671.7288818359
 11
615.4553833008
 21
1684.7602539062
  0
ARC
  8
DOGSV_8
  6
DOGSL_1
 62
     4
 10
4489.1469726562
 20
1614.6501464844
 40
3874.494140625
 50
176.5950469971
 51
179.1109619141
  0
LINE
  8
DOGSV_8
  6
DOGSL_1
 62
     4
 10
2548.6538085938
 20
1614.7628173828
 11
621.4924926758
 21
1844.7653808594
  0
LINE
  8
DOGSV_8
  6
DOGSL_1
 62
     4
 10
3601.8474121094
 20
1834.7628173828
 11
620.9103393555
 21
1834.7628173828
  0
LINE
  8
DOGSV_8
  6
DOGSL_1
 62
     4
 10
3601.8474121094
 20
1857.7697753906
 11
620.9103393555
 21
1844.7628173828
  0
LINE
  8
DOGSV_8
  6
DOGSL_1
 62
     4
 10
3601.2651367188
 20
1847.7672119141
 11
620.3281860352
 21
1834.7603759766
  0
LINE
  8
DOGSV_8
  6
DOGSL_3
 62
     4
 10
3601.8474121094
 20
1759.7628173828
 11
617.3713378906
 21
1759.7628173828
  0
CIRCLE
  8
DOGSV_8
  6
DOGSL_1
 62
     4
 10
4134.0375976562
 20
1759.7628173828
 40
100.3290023804
  0
TEXT
  8
DOGSV_10
 62
     3
 10
3661.9431152344
 20
283.1422424316
 40
40.0
 50
0.0
  1
VIEW 10 (DIMS)
  0
LINE
  8
DOGSV_10
  6
DOGSL_1
 62
     1
 10
430.3749694824
 20
1059.7628173828
 11
430.3749694824
 21
1184.7628173828
  0
LINE
  8
DOGSV_10
  6
DOGSL_1
 62
     1
 10
428.3749694824
 20
1168.7628173828
 11
430.3749694824
 21
1184.7628173828
  0
LINE
  8
DOGSV_10
  6
DOGSL_1
 62
     1
 10
432.3749694824
 20
1168.7628173828
 11
430.3749694824
 21
1184.7628173828
  0
LINE
  8
DOGSV_10
  6
DOGSL_1
 62
     1
 10
430.3749694824
 20
1059.7628173828
 11
430.3749694824
 21
934.7628173828
  0
LINE
  8
DOGSV_10
  6
DOGSL_1
 62
     1
 10
432.3749694824
 20
950.7628173828
 11
430.3749694824
 21
934.7628173828
  0
LINE
  8
DOGSV_10
  6
DOGSL_1
 62
     1
 10
428.3749694824
 20
950.7628173828
 11
430.3749694824
 21
934.7628173828
  0
LINE
  8
DOGSV_10
  6
DOGSL_1
 62
     1
 10
485.371307373
 20
1184.7628173828
 11
430.3749694824
 21
1184.7628173828
  0
LINE
  8
DOGSV_10
  6
DOGSL_1
 62
     1
 10
430.3749694824
 20
1184.7628173828
 11
418.3749694824
 21
1184.7628173828
  0
LINE
  8
DOGSV_10
  6
DOGSL_1
 62
     1
 10
485.371307373
 20
934.7628173828
 11
430.3749694824
 21
934.7628173828
  0
LINE
  8
DOGSV_10
  6
DOGSL_1
 62
     1
 10
430.3749694824
 20
934.7628173828
 11
418.3749694824
 21
934.762878418
  0
TEXT
  8
DOGSV_10
 62
     3
 10
423.3749694824
 20
999.7628173828
 40
28.0
 50
90.0
  1
250.0
  0
LINE
  8
DOGSV_10
  6
DOGSL_1
 62
     1
 10
2299.0146484375
 20
1318.6568603516
 11
2065.3464355469
 21
1318.6568603516
  0
LINE
  8
DOGSV_10
  6
DOGSL_1
 62
     1
 10
2081.3464355469
 20
1316.6568603516
 11
2065.3464355469
 21
1318.6568603516
  0
LINE
  8
DOGSV_10
  6
DOGSL_1
 62
     1
 10
2081.3464355469
 20
1320.6568603516
 11
2065.3464355469
 21
1318.6568603516
  0
LINE
  8
DOGSV_10
  6
DOGSL_1
 62
     1
 10
2299.0146484375
 20
1318.6568603516
 11
2532.6828613281
 21
1318.6568603516
  0
LINE
  8
DOGSV_10
  6
DOGSL_1
 62
     1
 10
2516.6828613281
 20
1320.6568603516
 11
2532.6828613281
 21
1318.6568603516
  0
LINE
  8
DOGSV_10
  6
DOGSL_1
 62
     1
 10
2516.6828613281
 20
1316.6568603516
 11
2532.6828613281
 21
1318.6568603516
  0
LINE
  8
DOGSV_10
  6
DOGSL_1
 62
     1
 10
2065.3461914062
 20
1392.7628173828
 11
2065.3464355469
 21
1318.6568603516
  0
LINE
  8
DOGSV_10
  6
DOGSL_1
 62
     1
 10
2065.3464355469
 20
1318.6568603516
 11
2065.3464355469
 21
1306.6568603516
  0
LINE
  8
DOGSV_10
  6
DOGSL_1
 62
     1
 10
2532.6828613281
 20
1392.7628173828
 11
2532.6828613281
 21
1318.6568603516
  0
LINE
  8
DOGSV_10
  6
DOGSL_1
 62
     1
 10
2532.6828613281
 20
1318.6568603516
 11
2532.6828613281
 21
1306.6568603516
  0
TEXT
  8
DOGSV_10
 62
     3
 10
2239.0146484375
 20
1325.6568603516
 40
28.0
 50
0.0
  1
467.3
  0
LINE
  8
DOGSV_10
  6
DOGSL_1
 62
     1
 10
1281.3588867188
 20
1285.5239257812
 11
2065.3464355469
 21
1285.5239257812
  0
LINE
  8
DOGSV_10
  6
DOGSL_1
 62
     1
 10
2049.3464355469
 20
1287.5239257812
 11
2065.3464355469
 21
1285.5239257812
  0
LINE
  8
DOGSV_10
  6
DOGSL_1
 62
     1
 10
2049.3464355469
 20
1283.5239257812
 11
2065.3464355469
 21
1285.5239257812
  0
LINE
  8
DOGSV_10
  6
DOGSL_1
 62
     1
 10
1281.3588867188
 20
1285.5239257812
 11
497.371307373
 21
1285.5239257812
  0
LINE
  8
DOGSV_10
  6
DOGSL_1
 62
     1
 10
513.3713378906
 20
1283.5239257812
 11
497.371307373
 21
1285.5239257812
  0
LINE
  8
DOGSV_10
  6
DOGSL_1
 62
     1
 10
513.3713378906
 20
1287.5239257812
 11
497.371307373
 21
1285.5239257812
  0
LINE
  8
DOGSV_10
  6
DOGSL_1
 62
     1
 10
2065.3461914062
 20
1196.7631835938
 11
2065.3464355469
 21
1285.5239257812
  0
LINE
  8
DOGSV_10
  6
DOGSL_1
 62
     1
 10
2065.3464355469
 20
1285.5239257812
 11
2065.3464355469
 21
1297.5239257812
  0
LINE
  8
DOGSV_10
  6
DOGSL_1
 62
     1
 10
497.371307373
 20
1196.7628173828
 11
497.371307373
 21
1285.5239257812
  0
LINE
  8
DOGSV_10
  6
DOGSL_1
 62
     1
 10
497.371307373
 20
1285.5239257812
 11
497.371307373
 21
1297.5239257812
  0
TEXT
  8
DOGSV_10
 62
     3
 10
1209.3588867188
 20
1292.5239257812
 40
28.0
 50
0.0
  1
1568.0
  0
LINE
  8
DOGSV_10
  6
DOGSL_1
 62
     1
 10
3089.4982910156
 20
1286.1850585938
 11
3646.3137207031
 21
1286.1850585938
  0
LINE
  8
DOGSV_10
  6
DOGSL_1
 62
     1
 10
3630.3137207031
 20
1288.1850585938
 11
3646.3137207031
 21
1286.1850585938
  0
LINE
  8
DOGSV_10
  6
DOGSL_1
 62
     1
 10
3630.3137207031
 20
1284.1850585938
 11
3646.3137207031
 21
1286.1850585938
  0
LINE
  8
DOGSV_10
  6
DOGSL_1
 62
     1
 10
3089.4982910156
 20
1286.1850585938
 11
2532.6828613281
 21
1286.1850585938
  0
LINE
  8
DOGSV_10
  6
DOGSL_1
 62
     1
 10
2548.6828613281
 20
1284.1850585938
 11
2532.6828613281
 21
1286.1850585938
  0
LINE
  8
DOGSV_10
  6
DOGSL_1
 62
     1
 10
2548.6828613281
 20
1288.1850585938
 11
2532.6828613281
 21
1286.1850585938
  0
LINE
  8
DOGSV_10
  6
DOGSL_1
 62
     1
 10
3646.3137207031
 20
1751.5861816406
 11
3646.3137207031
 21
1286.1850585938
  0
LINE
  8
DOGSV_10
  6
DOGSL_1
 62
     1
 10
3646.3137207031
 20
1286.1850585938
 11
3646.3137207031
 21
1274.1850585938
  0
LINE
  8
DOGSV_10
  6
DOGSL_1
 62
     1
 10
2532.6828613281
 20
1196.7634277344
 11
2532.6828613281
 21
1286.1850585938
  0
LINE
  8
DOGSV_10
  6
DOGSL_1
 62
     1
 10
2532.6828613281
 20
1286.1850585938
 11
2532.6828613281
 21
1298.1850585938
  0
TEXT
  8
DOGSV_10
 62
     3
 10
3017.4982910156
 20
1293.1850585938
 40
28.0
 50
0.0
  1
1113.6
  0
LINE
  8
DOGSV_10
  6
DOGSL_1
 62
     1
 10
3471.3432617188
 20
1359.9580078125
 11
3646.3393554688
 21
1359.9580078125
  0
LINE
  8
DOGSV_10
  6
DOGSL_1
 62
     1
 10
3630.3393554688
 20
1361.9580078125
 11
3646.3393554688
 21
1359.9580078125
  0
LINE
  8
DOGSV_10
  6
DOGSL_1
 62
     1
 10
3630.3393554688
 20
1357.9580078125
 11
3646.3393554688
 21
1359.9580078125
  0
LINE
  8
DOGSV_10
  6
DOGSL_1
 62
     1
 10
3471.3432617188
 20
1359.9580078125
 11
3296.3474121094
 21
1359.9580078125
  0
LINE
  8
DOGSV_10
  6
DOGSL_1
 62
     1
 10
3312.3474121094
 20
1357.9580078125
 11
3296.3474121094
 21
1359.9580078125
  0
LINE
  8
DOGSV_10
  6
DOGSL_1
 62
     1
 10
3312.3474121094
 20
1361.9580078125
 11
3296.3474121094
 21
1359.9580078125
  0
LINE
  8
DOGSV_10
  6
DOGSL_1
 62
     1
 10
3646.3395996094
 20
1749.6104736328
 11
3646.3393554688
 21
1359.9580078125
  0
LINE
  8
DOGSV_10
  6
DOGSL_1
 62
     1
 10
3646.3393554688
 20
1359.9580078125
 11
3646.3393554688
 21
1347.9580078125
  0
LINE
  8
DOGSV_10
  6
DOGSL_1
 62
     1
 10
3296.3471679688
 20
1613.3015136719
 11
3296.3474121094
 21
1359.9580078125
  0
LINE
  8
DOGSV_10
  6
DOGSL_1
 62
     1
 10
3296.3474121094
 20
1359.9580078125
 11
3296.3474121094
 21
1347.9580078125
  0
TEXT
  8
DOGSV_10
 62
     3
 10
3411.3435058594
 20
1366.9580078125
 40
28.0
 50
0.0
  1
350.0
  0
LINE
  8
DOGSV_10
  6
DOGSL_1
 62
     1
 10
430.3749694824
 20
1759.7628173828
 11
430.3749694824
 21
1884.7628173828
  0
LINE
  8
DOGSV_10
  6
DOGSL_1
 62
     1
 10
428.3749694824
 20
1868.7628173828
 11
430.3749694824
 21
1884.7628173828
  0
LINE
  8
DOGSV_10
  6
DOGSL_1
 62
     1
 10
432.3749694824
 20
1868.7628173828
 11
430.3749694824
 21
1884.7628173828
  0
LINE
  8
DOGSV_10
  6
DOGSL_1
 62
     1
 10
430.3749694824
 20
1759.7628173828
 11
430.3749694824
 21
1634.7628173828
  0
LINE
  8
DOGSV_10
  6
DOGSL_1
 62
     1
 10
432.3749694824
 20
1650.7628173828
 11
430.3749694824
 21
1634.7628173828
  0
LINE
  8
DOGSV_10
  6
DOGSL_1
 62
     1
 10
428.3749694824
 20
1650.7628173828
 11
430.3749694824
 21
1634.7628173828
  0
LINE
  8
DOGSV_10
  6
DOGSL_1
 62
     1
 10
485.371307373
 20
1884.7628173828
 11
430.3749694824
 21
1884.7628173828
  0
LINE
  8
DOGSV_10
  6
DOGSL_1
 62
     1
 10
430.3749694824
 20
1884.7628173828
 11
418.3749694824
 21
1884.7628173828
  0
LINE
  8
DOGSV_10
  6
DOGSL_1
 62
     1
 10
485.371307373
 20
1634.7628173828
 11
430.3749694824
 21
1634.7628173828
  0
LINE
  8
DOGSV_10
  6
DOGSL_1
 62
     1
 10
430.3749694824
 20
1634.7628173828
 11
418.3749694824
 21
1634.7628173828
  0
TEXT
  8
DOGSV_10
 62
     3
 10
423.3749694824
 20
1699.7628173828
 40
28.0
 50
90.0
  1
250.0
  0
LINE
  8
DOGSV_10
  6
DOGSL_1
 62
     1
 10
2743.5974121094
 20
2054.0869140625
 11
2190.8474121094
 21
2054.0869140625
  0
LINE
  8
DOGSV_10
  6
DOGSL_1
 62
     1
 10
2206.8474121094
 20
2052.0869140625
 11
2190.8474121094
 21
2054.0869140625
  0
LINE
  8
DOGSV_10
  6
DOGSL_1
 62
     1
 10
2206.8474121094
 20
2056.0869140625
 11
2190.8474121094
 21
2054.0869140625
  0
LINE
  8
DOGSV_10
  6
DOGSL_1
 62
     1
 10
2743.5974121094
 20
2054.0869140625
 11
3296.3474121094
 21
2054.0869140625
  0
LINE
  8
DOGSV_10
  6
DOGSL_1
 62
     1
 10
3280.3474121094
 20
2056.0869140625
 11
3296.3474121094
 21
2054.0869140625
  0
LINE
  8
DOGSV_10
  6
DOGSL_1
 62
     1
 10
3280.3474121094
 20
2052.0869140625
 11
3296.3474121094
 21
2054.0869140625
  0
LINE
  8
DOGSV_10
  6
DOGSL_1
 62
     1
 10
2190.8474121094
 20
1880.2891845703
 11
2190.8474121094
 21
2054.0869140625
  0
LINE
  8
DOGSV_10
  6
DOGSL_1
 62
     1
 10
2190.8474121094
 20
2054.0869140625
 11
2190.8474121094
 21
2066.0869140625
  0
LINE
  8
DOGSV_10
  6
DOGSL_1
 62
     1
 10
3296.3471679688
 20
1689.5810546875
 11
3296.3474121094
 21
2054.0869140625
  0
LINE
  8
DOGSV_10
  6
DOGSL_1
 62
     1
 10
3296.3474121094
 20
2054.0869140625
 11
3296.3474121094
 21
2066.0869140625
  0
TEXT
  8
DOGSV_10
 62
     3
 10
2671.5974121094
 20
2061.0869140625
 40
28.0
 50
0.0
  1
1105.5
  0
LINE
  8
DOGSV_10
  6
DOGSL_1
 62
     1
 10
2070.1721191406
 20
2208.8666992188
 11
3646.3471679688
 21
2208.8666992188
  0
LINE
  8
DOGSV_10
  6
DOGSL_1
 62
     1
 10
3630.3471679688
 20
2210.8666992188
 11
3646.3471679688
 21
2208.8666992188
  0
LINE
  8
DOGSV_10
  6
DOGSL_1
 62
     1
 10
3630.3471679688
 20
2206.8666992188
 11
3646.3471679688
 21
2208.8666992188
  0
LINE
  8
DOGSV_10
  6
DOGSL_1
 62
     1
 10
2070.1721191406
 20
2208.8666992188
 11
493.9969177246
 21
2208.8666992188
  0
LINE
  8
DOGSV_10
  6
DOGSL_1
 62
     1
 10
509.9969177246
 20
2206.8666992188
 11
493.9969177246
 21
2208.8666992188
  0
LINE
  8
DOGSV_10
  6
DOGSL_1
 62
     1
 10
509.9969177246
 20
2210.8666992188
 11
493.9969177246
 21
2208.8666992188
  0
LINE
  8
DOGSV_10
  6
DOGSL_1
 62
     1
 10
3646.3471679688
 20
1772.0493164062
 11
3646.3471679688
 21
2208.8666992188
  0
LINE
  8
DOGSV_10
  6
DOGSL_1
 62
     1
 10
3646.3471679688
 20
2208.8666992188
 11
3646.3471679688
 21
2220.8666992188
  0
LINE
  8
DOGSV_10
  6
DOGSL_1
 62
     1
 10
493.9969177246
 20
1891.7628173828
 11
493.9969177246
 21
2208.8666992188
  0
LINE
  8
DOGSV_10
  6
DOGSL_1
 62
     1
 10
493.9969177246
 20
2208.8666992188
 11
493.9969177246
 21
2220.8666992188
  0
TEXT
  8
DOGSV_10
 62
     3
 10
1998.1719970703
 20
2215.8666992188
 40
28.0
 50
0.0
  1
3152.4
  0
ENDSEC
  0
EOF
